Oops, an error
Loading. Please wait.

Sempurna tab

version 3
version 3
26,541 views 57 this week
3 commentsread comments
1 2 3 4 5
x 6
add to favorites
×
Save as Personal and add changes to this tab that will be seen only by you. Learn more ›
×
You can save this tab as Personal to edit and correct it or add notes. All changes will be seen only by you. Learn more »
launch autoscroll
font size
0
reset
how to read this tab
guitar tuner
edit
Autoscroll
slow
fast
+/-
esc
set tempo
stop
Author
Difficulty
intermediate
Andra And The Backbone - Sempurna

I edited this from the tabs i've posted before this;-)


Standard Tuning [eBGDAE]

Chords;

[intro] E E

[verse] E C#m A-B C#m

[bridge] A B C#m C#m A B

[chorus] E B A E B A C#m G#m A C#m G#m A F# E C#m


Tabs;

Intro:

  [E]
E -------------------------------------------------|
B -5-------5---4-------4---2-------2---4-------4---|
G -----4-----------4-----------4-----------4-------|
D -2-2---2---2-2-2---2---2-2-2---2---2-2-2---2---2-|
A -------------------------------------------------|
E -------------------------------------------------|

  [E]
E -------------------------------------------------|
B -5-------5---4-------4---2-------2---4-------4---|
G -----4-----------4-----------4-----------4-------|
D -2-2---2---2-2-2---2---2-2-2---2---2-2-2---2---2-|
A -------------------------------------------------|
E -------------------------------------------------|


Verse:

  [E]
E -------------------------------------------------|
B -5-------5---4-------4---2-------2---4-------4---|
G -----4-----------4-----------4-----------4-------|
D -2-2---2---2-2-2---2---2-2-2---2---2-2-2---2---2-|
A -------------------------------------------------|
E -------------------------------------------------|

  [C#m]
E -------------------------------------------------|
B -5-------5---4-------4---------------4-------4---|
G -----4-----------4-------6---4---6-------4-------|
D -------------------------------------------------|
A -4-4---4---4-4-4---4---4-4-4---4---4-4-4---4---4-|
E -------------------------------------------------|

  [A]                     [B]
E -4-------4---2-------2---4-------4---2-------2---|
B -----5-----------5-----------5-----------5-------|
G -------------------------------------------------|
D -------------------------------------------------|
A -0-0---0---0-0-0---0---0-2-2---2---2-2-2---2---2-|
E -------------------------------------------------|

  [C#m]
E -------------------------------------------------|
B -5-------5---4-------4---------------4-------4---|
G -----4-----------4-------6---4---6-------4-------|
D -------------------------------------------------|
A -4-4---4---4-4-4---4---4-4-4---4---4-4-4---4---4-|
E -------------------------------------------------|


Bridge:

  [A]                     [B]
E -7-----------7-----------7-----------7-----------|
B -----7-----------7-----------7-----------7-------|
G ---------9-----------9-----------9-----------9---|
D -------------------------------------------------|
A -0-0---0---0-0-0---0-----------------------------|
E -----------------------7-7-7---7---7-7-7---7---7-|


  [C#m]
E -7-----------7-----------7-----------7-----------|
B -----7-----------7-----------7-----------7-------|
G ---------9-----------9-----------9-----------9---|
D -------------------------------------------------|
A -------------------------------------------------|
E -9-9---9---9-9-9---9---9-9-9---9---9-9-9---9---9-|

  [A]                     [B]
E -7-----------7-----------7-------------x---------|
B -----7-----------7-----------7-------7-x---------|
G ---------9-----------9-----------9---8-x---------|
D ---------------------------------------x---------|
A -0-0---0---0-0-0---0-------------------x---------|
E -----------------------7-7-7---7---7-7-x---------|

Chorus:

  [E]          [B]           [A]
E ----------------------------4-----------5------------|
B -5-------5----4h5------4--------5-----------5--------|
G -----4-------------4----------------2-----------2----|
D -2-2---2---2-----------------------------------------|
A --------------2--2---2---2--0-0---0---0-0-0---0---0--|
E -----------------------------------------------------|

  [E]          [B]           [A]
E ----------------------------4-----------4------------|
B -5-------5----4h5------4--------5-----------5--------|
G -----4-------------4----------------2-----------2----|
D -2-2---2---2-----------------------------------------|
A --------------2--2---2---2--0-0---0---0-0-0---0---0--|
E -----------------------------------------------------|

  [C#m]         [G#m]         [A]
E ----------------------------4-----------4------------|
B -5-------5----4h5------4--------5-----------5--------|
G -----4-------------4----------------2-----------2----|
D -----------------------------------------------------|
A -4-4---4---4----------------0-0---0---0-0-0---0---0--|
E --------------4--4---4---4---------------------------|

  [C#m]         [G#m]         [A]          [F#]
E ----------------------------4--------------------4p2-2-0--|
B -5-------5----4h5------4--------5--------------4----------|
G -----4-------------4----------------2--------3------------|
D ----------------------------------------------------------|
A -4-4---4---4----------------0-0---0---0----4--------------|
E --------------4--4---4---4---------------2----------------|


  [E]
E -------------------------------------------------|
B -5-------5---4-------4---2-------2---4-------4---|
G -----4-----------4-----------4-----------4-------|
D -2-2---2---2-2-2---2---2-2-2---2---2-2-2---2---2-|
A -------------------------------------------------|
E -------------------------------------------------|

  [C#m]
E -------------------------------------------------|
B -5-------5---4-------4---2-------2---4-------4---|
G -----4-----------4-----------4-----------4-------|
D -------------------------------------------------|
A -4-4---4---4-4-4---4---4-4-4---4---4-4-4---4---4-|
E -------------------------------------------------|

            
            
Suggest correction
Creating personal tab
Creating personal tab
You can edit any tab online and save it as your Personal.

You can edit, replace or remove any tab part or add personal notes – all changes will be seen only by you.

Personal tabs can be accessed anytime from any device, even offline.
Learn more »
comments
print report bad tab
3 comments total.
0 reply
kenz.94 10 Jun 01, 2010 01:17 AM

ini yang 100% sempurna..Tab lain emank bener sih pas dimainin sambil dinyanyiin, tapi kalo diperhatiin, tab inilah yg paling bener...

Sekaligus tab paling susah..

kalo mo yg gampang versi satu.....tapi ini juga gampang sih, en 100% bener, intro ga diulang 2 kali di versenya, jadi 99% lah bener, cuma kurang fill2 nya aja nih

Rate 5 boss

0 reply
imandana 10 Oct 20, 2010 06:17 PM

yang kudapat ini..

Sempurna by andra and the backbone

tabbed by imandana rahimaswara...arek probolinggo

Setelan biasa bro....dengan penjepit di fret ke 2 (kalo ingin persis seperti mp3nya)

Standard Tuning with Capo on 2nd fret

Chords;

[intro] D D

[verse] D Bm G-A Bm

[bridge] G A Bm Bm G A

[chorus] D A G D A G Bm F#m G Bm F#m G E D Bm

Tabs;

Into:

[D]
E -------------------------------------------------|
B -3-------3---2-------2---0-------0---2-------2---|
G -----2-----2-----2-----2-----2-----2-----2-----2-|
D -0-0---0-----0-0---0-----0-0---0-----0-0---0-----|
A -------------------------------------------------|
E -------------------------------------------------|

[D]
E -------------------------------------------------|
B -3-------3---2-------2---0-------0---2-------2---|
G -----2-----2-----2-----2-----2-----2-----2-----2-|
D -0-0---0-----0-0---0-----0-0---0-----0-0---0-----|
A -------------------------------------------------|
E -------------------------------------------------|

1st Verse:

[D]
E -------------------------------------------------|
B -3-------3---2-------2---0-------0---2-------2---|
G -----2-----2-----2-----2-----2-----2-----2-----2-|
D -0-0---0-----0-0---0-----0-0---0-----0-0---0-----|
A -------------------------------------------------|
E -------------------------------------------------|

[Bm]
E -------------------------------------------------|
B -3-------3---2-------2---0-------0---2-------2---|
G -----2-----2-----2-----2-----2-----2-----2-------|
D ---0-----------0-----------0-----------0-------0-|
A -2-----2-----2-----2-----2-----2-----2-----2-----|
E -------------------------------------------------|

[G] [A]
E -2-------2---0-------0---2-------2---0-------0---|
B -----3-----------3-----------3-----------3-------|
G ---0-------0---0-------0---0-------0---0-------0-|
D -------------------------------------------------|
A -------------------------0-----0-----0-----0-----|
E -3-----3-----3-----3-----------------------------|

[D]
E -------------------------------------------------|
B -3-------3---2-------2---0-------0---2-------2---|
G -----2-----2-----2-----2-----2-----2-----2-----2-|
D -0-0---0-----0-0---0-----0-0---0-----0-0---0-----|
A -------------------------------------------------|
E -------------------------------------------------|

2nd Verse:

[D]
E -------------------------------------------------|
B -3-------3---2-------2---0-------0---2-------2---|
G -----2-----2-----2-----2-----2-----2-----2-----2-|
D -0-0---0-----0-0---0-----0-0---0-----0-0---0-----|
A -------------------------------------------------|
E -------------------------------------------------|

[Bm]
E -------------------------------------------------|
B -3-------3---2-------2---0-------0---2-------2---|
G -----2-----2-----2-----2-----2-----2-----2-------|
D ---0-----------0-----------0-----------0-------0-|
A -2-----2-----2-----2-----2-----2-----2-----2-----|
E -------------------------------------------------|

[G] [A]
E -2-------2---0-------0---2-------2---0-------0---|
B -----3-----------3-----------3-----------3-------|
G ---0-------0---0-------0---0-------0---0-------0-|
D -------------------------------------------------|
A -------------------------0-----0-----0-----0-----|
E -3-----3-----3-----3-----------------------------|

[Bm]
E -------------------------------------------------|
B -3-------3---2-------2---0-------0---2-------2---|
G -----2-----2-----2-----2-----2-----2-----2-------|
D ---0-----------0-----------0-----------0-------0-|
A -2-----2-----2-----2-----2-----2-----2-----2-----|
E -------------------------------------------------|

Bridge:

[G] [A]
E -5-------------5---------5---5-------------5---------5--|
B -5---5---5-----5---5---5-----5---5---5-----5---5---5----|
G ---7-------7-----7-------7-----7-------7-----7-------7--|
D --------------------------------------------------------|
A -----------------------------0-----0-----0-0-----0-----0|
E -3-----3-----3-------3-----3----------------------------|

[Bm]
E -5-------------5---------5---5-------------5---------5--|
B -5---5---5-----5---5---5-----5---5---5-----5---5---5----|
G ---7-------7-----7-------7-----7-------7-----7-------7--|
D --------------------------------------------------------|
A -0-----0-----0-------0-----0-------0-----0-------0-----0|
E --------------------------------------------------------|

Guitar 2

[Bm]
E -4h2--2------------------------------------------|
B --------5--3--2----------------------------------|
G -----------------4--2----------------------------|
D --------------------2----------------------------|
A -------------------------------------------------|
E -------------------------------------------------|

[G] [A]
E -5-------------5---------5---5-------------5---------5---x|
B -5---5---5-----5---5---5-----5---5---5-----5---5---5-----x|
G ---7-------7-----7-------7-----7-

0 reply
ganxtarap 32 May 28, 2013 08:58 AM

Lagu ini teknik petikannya sama kayak Kansas - Dust In The Wind tahun 1977.. Kalo bisa petikannya lagu itu maen lagu ini dijamin bisa.. Karena teknik petikannya Kansas - Dust In The Wind lebih susah.. Ane dah ngalamin sendiri..
Btw good tab Bro ^_^

guest
You may want to rate the tab now too:
select rating
Wanna post a correction for this tab? Suggest correction