Oops, an error
Loading. Please wait.

Back To Black Tab

3,222 views 6 this week
no commentswrite comment
1 2 3 4 5
excellent!
x 3
add to favorites
launch autoscroll
font size
0
reset
how to read this tab
guitar tuner
Tab Pro tools
  • play this tab
  • loop segment
  • change instrument
  • show fretboard
  • metronome
×
Best way to learn
"Back To Black"
Autoscroll
slow
fast
+/-
esc
set tempo
stop
Contributor
This is my first tab, and i am not sure on explaining timing (apologies).. But i 
just listen to the song, and play along until i get the timing right.


**I have always loved Andre 3000.. and oh my, Beyonce.... sexiest thang i ever did hear!!**



First Verse (Andre 3000):        X6 (On the 3rd time, don't play the last two open A strings)

e|-----------------|------------------|-----------------|-----------------|
B|-----------------|------------------|-----------------|-----------------|
G|-----------------|------------------|-----------------|-----------------|
D|-----------------|------------------|-----------------|-----------------|
A|-5-5-5-5-5-5-3-3-|------------------|-----------------|-0-0-0-0-0-0-0-0-|
E|-----------------|-3-3-3-3-3-3-3-3--|-6-6-6-6-6-6-3-3-|-----------------|


[First Verse: Andre3000]


I, I, I left no time to regret

Kept my dick wet

With that same old bet

Oh, and You, you and your head high

And your tears dry

Get on without your guy

And I, I, I, went back to what i knew

So far removed from all we went through

Uh Oh And you and you and you, You tread a troubled track

your odds are always stacked

you’ll go back to black



[Hook: Andre 3000]


We only said goodbye with words

I died a hundred times

I go back to her

And you go back to...

you go back to..


Inbetween Verses:                 X2

E ||-------------------------|      
B ||-------------------------|
G ||-------------------------|
D ||---3-2---3-2---3-2-5-2---|
A ||-5-----5-----5-----------|
E ||-------------------------|



Second Verse (Beyonce):           X6


e|-----------------|------------------|-----------------|-----------------|
B|-----------------|------------------|-----------------|-----------------|
G|-----------------|------------------|-----------------|-----------------|
D|-----------------|------------------|-----------------|-----------------|
A|-5-5-5-5-5-5-3-3-|------------------|-----------------|-0-0-0-0-0-0-0-0-|
E|-----------------|-3-3-3-3-3-3-3-3-|-6-6-6-6-6-6-3-3-|------------------|



[Verse 2: Beyonce]


I, I loved you much

It's not enough

I love blow and you love puff

And life, is like a pipe

And I'm a tiny penny rolling up the walls inside



[Hook: Beyonce]


We only said goodbye with words

I died a hundred times

You go back to her and I go back too

We only said goodbye with words

I died a hundred times

You go back to her

And I go back too, I go back to black



[Outro]:                          X2

E ||-------------------------|      
B ||-------------------------|
G ||-------------------------|
D ||---3-2---3-2---3-2-5-2---|
A ||-5-----5-----5-----------|
E ||-------------------------|
comments
We did not receive enough feedback on this tab! Please rate:
print report bad tab
1 2 3 4 5
I want to post or [tab]
guest
You may want to rate the tab now too:
select rating
Please do not post tabs as comments. Select "correction" instead!