Oops, an error
Loading. Please wait.

Ayo For Yayo Tab

version 6
version 6

Interactive

895 views 3 this week
2 commentsread comments
1 2 3 4 5
2 more votes to show rating
add to favorites
launch autoscroll
font size
0
reset
how to read this tab
guitar tuner
Autoscroll
slow
fast
+/-
esc
set tempo
stop
Help us to improve Ultimate-Guitar.com Take our survey!
×
Author
Difficulty
intermediate
|---------------------------------------------------------------------|
                     Andre Nickatina - A Yo
|---------------------------------------------------------------------|
Tabbed by: fnljstce
Email: pjschlein@gmail.com

 I tried all the other tabs, but they all just seemed a little off to me. Basically, I 
just sub'd the heavy F# and B for lighter ones. The ones in parenthesis are ones I 
sometimes leave out-sounds goo either way.
Tuning: Standard

e|------------------------------------------------------5---------4--|
B|---2--2-----(2)---7-----7-----(7)----7-----7-----7------5---------5|
G|--------2-----------7-----7------------7-----7---------------------|
D|----(4)--4------------9-----9------------9-----9-------------------|
A|-------------------------------------------------------------------|
E|-2--------------7-----------------7-----------------0------0-4-----|
Suggest correction
Give kudos to tab author, rate the tab!
1 2 3 4 5
comments
print report bad tab
2 comments total.
0 reply
fnljstce 83 Jul 18, 2013 06:38 PM

e|------------------------------------------------------5---------4--|
B|---2--2-----(2)---7-----7-----(7)----7-----7-----7------5---------5|
G|--------2-----------7-----7------------7-----7---------------------|
D|----------4-----------------9-----------------9--------------------|
A|-------------------------------------------------------------------|
E|-2---22----------7-----77----------77-----77---------0-------0-4---|

This one is actually 100% I think (especially with the baseline)

+1 reply
Pen-Cap-Chew 202 Oct 15, 2013 04:19 PM

|-------------------------|----2----------2--------2-|------2----------2--------2-|----5-----------4-------|
|----2-------2----------2-|-------3----------3-------|---------3----------3-------|-------5-----------5----|
|---------------2---------|---------------------4----|-----------------------4----|------------------------|
|------------------4------|--------------------------|----------------------------|------------------------|
|-------------------------|-2--------2-2-------------|-2-2--------2-2-------------|------------------------|
|-2-----2-2---------------|--------------------------|----------------------------|-0--------0--4--------0-|


This is technically the same as above but spaced out plus one note at the end. One dash is a sixteenth note (two dashes is one eighth,) and it's split into four bars, in common time.

guest
You may want to rate the tab now too:
select rating
Wanna post a correction for this tab? Suggest correction