Oops, an error
Loading. Please wait.

Coka Cola Bass Tab

589 views 3 this week
1 commentread comment
1 2 3 4 5
please rate
add to favorites
launch autoscroll
font size
0
reset
guitar tuner
Autoscroll
slow
fast
+/-
esc
set tempo
stop
Help us to improve Ultimate-Guitar.com Take our survey!
×
Author
-------------------------------------------------------------------------------
			     Coka Cola - Andre Nickatina
-------------------------------------------------------------------------------

Tabbed By : Valerie L
e-mail: iloled@yahoo.com
Tuning: standard

Intro & Verse
G|---------------------------------------------------|
D|---------------------------------------------------|
A|------55--------55---------------55--------55------|
E|-3~--------3~------6-6-----3~--------3~--------6~--| x7

Chorus
G|---------------------------------------------------------------|
D|---------------------------------------------------------------|
A|-----------5-5-5------------5-5-5------------5-5-5---------3~--|
E|-3~---3333--------2~---2222-------1~----1111-------0~----------|

Then keep playing the verse over and over again until the end of the song
Suggest correction
What's this?
You can suggest a correction to this tab. Community and Mods will review your correction and vote to approve or reject it.
comments
We did not receive enough feedback on this tab! Please rate:
print report bad tab
1 2 3 4 5
1 comment total.
0 reply
istarii 1,138 wrote on December 29 2014, 05:44 pm

Great tab, gave it 5 stars. But during both verse and chorus I'd suggest playing the last D note (5th fret A string) each time as a D# (6th fret A string).

G|-------------------------------------------------------|
D|-------------------------------------------------------|
A|------56----------56----------------56----------56-----|
E|-3---------3----------6-6-----3---------3-----------6--|


G|-------------------------------------------------------|
D|-------------------------------------------------------|
A|----------5-5-6----------5-5-6----------5-5-6-------3--|
E|-3---3333-------2---2222-------1---1111-------0--------|

guest
You may want to rate the tab now too:
select rating
Please do not post tabs as comments. Select "correction" instead!