Oops, an error
Loading. Please wait.

Holla 4 Madonna Bass Tab

210 views 1 this week
1 commentread comment
1 2 3 4 5
please rate
add to favorites
launch autoscroll
font size
0
reset
guitar tuner
Autoscroll
slow
fast
+/-
esc
set tempo
stop
Help us to improve Ultimate-Guitar.com Take our survey!
×
Author
Difficulty
novice
Andre Nickatina
Holla For Madonna
Horns & Halos

G-------------------------------|
D-------------------------------|
A-3-3-6-66-3-3-6-3-3-6-66-3-3-6-|
E-------------------------------|

G-------------------------------|
D-------------------------------|
A-3-3-6-66-3-3-6-3-3-6-66-3-3-6-|
E-------------------------------|

Do that as much times necessary.
Thats what is being played throughout the entire song.
Suggest correction
Give kudos to tab author, rate the tab!
1 2 3 4 5
comments
print report bad tab
1 comment total.
0 reply
istarii 1,142 wrote on December 29 2014, 06:00 pm

nice work, gave it a 5 star. though I'd suggest this slight change:


G|--------------------------|--------------------------|
D|-------1--1-1--1-------1--|-------1--1-1--1-------1--|
A|-3--3------------3--3-----|-3--3------------3--3-----|
E|--------------------------|--------------------------|

guest
You may want to rate the tab now too:
select rating
Please do not post tabs as comments. Select "correction" instead!