Oops, an error
Loading. Please wait.

Allemande - Cello Suite No 3 Tab

version 1
version 1

Whole song

Interactive

1,394 views 1 this week
no commentswrite comment
1 2 3 4 5
please rate
add to favorites
launch autoscroll
font size
0
reset
how to read this tab
guitar tuner
Tab Pro tools
  • play this tab
  • loop segment
  • change instrument
  • show fretboard
  • metronome
Autoscroll
slow
fast
+/-
esc
set tempo
stop
Contributor
Difficulty
advanced
Allemande - Cello Suite No. 3  (J.S. Bach)

as recorded by Andrés Segovia
tabbed by Alex (Zandy) Wight

      E  E  E  E     E  S  S E  E     E  S  S E  E     E  S  S E  E   
E||---------2--4--|--5--4p-2-------|----------------|----------------|
B||------5--------|----------5--3--|--2--5p-3-2-----|----------------|
G||*--------------|----------------|-------------4--|--2-------------|
D||*--------------|----------------|----------------|-----2p-0-------|
A||---------------|--0----------L--|--0----------L--|----------4--2--|
E||---------------|----------------|----------------|----------------|


                 ^                                                         
  E  E  E  E     E  S  S E  E     E  S  S E  S. T    S  T  T  T  S. E  E   
--------------|-------------0--|-------------0--L-|-----------------------|
--------0--2--|--3--2p-0-2-----|--0---------------|-----------------------|
-----2--------|----------------|-----2S-1-2-------|--1h-2p-1h-2p-1--------|
--------------|----------------|------------------|-----------------4--2--|
--0--------L--|--2-------0--L--|------------------|-----------------------|
--------------|----------------|--4-----L-2-------|--0-----------------L--|


  S  S S S E  E     E  E  E  E     S  S S S E  E     E  E  E  E   
-----------------|--------5-----|-----------------|--------4-----|
--5p-3---3-5-----|-----5-----2--|--3p-2---2-3-----|-----3--------|
-------6------6--|--L-----------|-------4------4--|-----------4--|
-----------------|--4-----L-----|-----------------|--2-----L-----|
-----------------|--------------|--2------L-------|--------------|
-----------------|--------------|-----------------|--------------|


  S  S S S E  E     S  S S  S E  E     E  S  S E  E     Q     E.  S  
-----------------|------------------|----------------|--------------|
-----------------|------------0-----|----------------|--------------|
--6p-4---4-6-----|---------------7--|--6-------------|--------------|
-------7------7--|--0h-4-6h-7-------|-----7--L----6--|--7~----------|
--0-----------L--|------------------|--0--4S-5-7-----|--------0-----|
-----------------|------------4--L--|----------0--L--|--------------|


                                                           ^            
   S  S  S  S E   E     E  E  E  E     E  E  T  T  S E     Q.     S  S  
---------------------|--------7-----|--0--L-------------|--------------|
---------------------|-----7--------|-------------------|--7-----------|
---------------------|--8--------8--|-------------------|--8------4h-6-|
--11p-9p-7----7--11--|--------------|-----6--4h-6p-4----|--9-----------|
-----------11--------|--------------|--4--L----------7--|--9-----------|
---------------------|--7--------L--|-------------------|--7-----------|


  S  S S S E  E     E  S  S E  E     E  E  E  E     E  E  E  E   
---------4-5-----|--4-------------|--------------|--------------|
--4h-5-7------7--|-------------2--|--3--------3--|--2--L--4--L--|
-----------------|-----4p-2-4-----|--------1-----|--2--L--4--L--|
-----------------|--2-----L-------|-----4--------|--------------|
-----------6--L--|----------------|--2--L--------|-----0--L--0--|
-----------------|----------4--L--|--------0--L--|--------------|


  E   E  E   E     E   E  E  E     E  E   E  E      S  S S  S  E   E   
----------------|--4~--L--5--L--|--7--L---9--L--|--11--L------11------|
--5~--L--7~--L--|--5~--L--7--L--|--9--L--10--L--|-----10---10-----10--|
--6~--L--8~--L--|---------------|---------------|---------------------|
----------------|---------------|---------------|---9--L-9---------L--|
--L---0--L------|---------------|---------------|---------------------|
-------------0--|--L---0--L--0--|--L--0---L--0--|------L--------------|


                                               slide          
  S   S S  S  E  E      E   E   E  E      S S  S     S E  E   
--------9-11-12-----|------12--11--L--|----------------9-----|
--9h-12----------9--|-----------------|-----9-10S---12-------|
--9--------L--------|--11---L---------|---9---------------9--|
-------------11--L--|--------------9--|--11----L-------7--L--|
--------------------|--12---L---------|----------------------|
--------------------|-----------------|----------------------|


  E  E  E  E     S  S S S E  E     E  E  E  E     S  S E  E  E   
-----9--7--L--|-------2-4-5-----|-----5--4--L--|----------------|
--------------|--2h-5--------2--|--0--L--------|----------------|
--8--L--------|--2------L-------|--------------|----------6-----|
-----------6--|-----------4--L--|--------------|--7p-6-7-----6--|
--9--L--------|-----------------|--6-----L--7--|--9----L--7--L--|
--------------|-----------------|--------------|----------------|


  E  S  S E  S  S    E  S  S E  S  S    E  S S E  E     S S S  S E  E   
------------------|----------0-----L-|-----2-0-2--L--|-----------0--7--|
------------------|-----5S-4---------|---------------|----0-2h-4-------|
-----8p-6-8--L----|-------------2p-1-|--2------L--2--|--1--------------|
--7--L-------7p-6-|--7---------------|---------------|-----------------|
------------------|------------------|--2---------L--|-----------4--L--|
--7-------L-------|--7---------------|---------------|--0------L-------|


  E  S  S E  E     S S  S S E  E     E  S S E  E     S  S S S E  E   
--5-------------|--------------4--|--2------------|--------------0--|
-----4p-2-4-----|---------0-2-----|-----0---------|-----------------|
----------------|----1S-2---------|---------4--L--|-----------------|
-------------4--|--2--------------|--1----7-------|-------4-6-7-----|
----------2--L--|--4-L------0--L--|------------6--|--4h-7-----4-----|
--2-----L-------|-----------------|---------4--L--|--5------L-------|


  S  S S S E  E     E  E  E  E     E  S  S E  S  S    E  S  S E  E   
-------4-5-7--L--|-----0--------|--0--4h-5-7--0h-2-|--4--0----------|
--4h-7-----------|-----------4--|------------------|----------0-----|
--4--------L-----|--------------|------------------|-------------8--|
--------------7--|--6--L--4--L--|------------------|-------------7--|
-----------------|--7--L--2--L--|------------------|----------------|
-----------------|--------------|--0-----L-0-----L-|--0--4S-5-7-----|


  ^                                                               
  H           H              E   E  E   E      E    S  S  E   E   
-----------|------------||----------9--11--|--12p--11p-9---------|
--5--------|--L---------||------12---------|-------------12--10--|
--4--------|--L--------*||*----------------|---------------------|
--6--------|--L--------*||*----------------|---------------------|
--7--------|--L---------||-----------------|---------------------|
-----------|------------||-----------------|---0--------------L--|


  E   S   S E   E     E  S  S E  E     E  E   E  E     S  S  S S  E  E   
-------------------|----------------|------------7--|--9p-7----------2--|
--9--12p-10-9------|----------------|-----9--10-----|-------10-9-10-----|
---------------11--|--9-------------|---------------|-------------------|
-------------------|-----9p-7-6-----|---------------|-------------------|
-------------------|-------------9--|--7------------|--0----------L-----|
--0-------------L--|--0-------------|------------L--|-------------------|


  E  S  S E  E     E   E  E  E     S  S S S E  E     E  E  E  E   
-------------4--|---------------|-----------------|--------------|
--3--0h-2-3-----|--6p--4--2--0--|---------0-2-----|-----------2--|
----------------|---------------|--2p-1-2------2--|--------2--L--|
----------------|---------3--L--|--4------L-------|-----4-----L--|
--2----------L--|--4---L--------|-----------------|--5--------L--|
----------------|---------------|-----------2--L--|--------------|


  S  S S S E  E     E  E  E  E     S  S S S E  E     S  S S S E  E   
-----------------|-----------4--|--5p-4---4-5-----|-----------------|
---------2-3-----|--6-----L-----|-------7------7--|--3p-2---2-3-----|
--4p-2-4------4--|-----4--L-----|-----------------|-------4------4--|
-----------------|--------------|--4--------L-----|-----------------|
-----------2--L--|--------4--L--|-----------------|--2--------L-----|
--4------L-------|--------------|-----------------|-----------------|


  S  S S S E  E     E  S S S S S S    E  E  S  S S S    E  E  E  E   
--4p-2-1-2-4-----|-------------4-5-|--7--4--5p-4-----|-----------4--|
--------------0--|-------4-6-7-----|-------------7-6-|--7-----3-----|
-----------------|-----6-----------|-----------------|--------4-----|
--0--------L-----|-----------------|--3--L--4------L-|-----7--0--L--|
-----------------|--4------------L-|-----------------|--0--L--------|
-----------------|-----------------|-----------------|--------------|


  E  E  Q       Q.     S  S    E  S  S  E  S  S    E  S  S E  E   
--------2----|--L------5s-7-|--9----------------|----------------|
-----6--2----|--L-----------|-----7h-9-10-------|-----8p-7-8-----|
--6-----2----|--L-----------|--------------6h-7-|--9-------------|
-------------|--------------|-------------------|-------------7--|
--4--L-------|--------------|-------------------|--0-------L-----|
--------2----|--L-----------|-------------------|----------------|


  E  E  T  T  S E     E  S  S E  E     S  S S S E  E     E  S  S E  S  S  
-------------------|--2----------2--|-----------0-----|------------------|
-----8--7h-8p-7----|-----3p-2-3-----|-------2-3----2--|-----0h-2-3--3h-5-|
----------------9--|----------------|--3h-4-----------|------------------|
-------------------|--0-----L-------|-----------------|------------------|
--------0-------L--|----------2--L--|-----------1--L--|--2-------L-------|
--9--L-------------|----------------|--2------L-------|------------------|


  E  S  S E  E     S S S S E  E     S  S S S E  E     E  E  E  E   
-----4h-5-7--5--|--4-------4-----|-------2-4-5-----|-----5--4--L--|
--7-------------|----3---3----3--|--2h-5--------2--|--------------|
----------------|----------------|--2------L-------|--4--L--------|
--0----------L--|------2---------|-----------4--L--|--0-----L--2--|
----------------|----------------|-----------------|--------------|
----------------|--0----------L--|-----------------|--------------|


  S S  S  S E  E     E  E  E  E     S  S S S E  E     E  E  E  E   
------------2-----|-----2--0--L--|-----------------|--------------|
----2h-3S-5-------|--------------|-----------3-----|-----3--2--L--|
--2------------2--|--1--L--------|-------4-6-------|--------------|
--4-------L-0--L--|--------------|--4h-7--------4--|--2--L--------|
------------------|--2-----L--4--|--5------L-2--L--|-----------0--|
------------------|--------------|-----------------|--4-----L-----|


                                                               ^         
  E  S  S E  S  S    E  S  S E  S  S    E  S  S E  E     E  E  E   S  S  
-----2p-0---------|-----5p-4-5--4p-2-|--0----------4--|--5-----3~--2p-0-|
----------3--3p-2-|--0--L------------|-----3p-2-0-----|-----------------|
------------------|------------------|----------------|-----------------|
--0---------------|-------------0--L-|-----0--L-2--L--|-----4-----------|
--2--L------------|------------------|--4-------------|--------0--------|
----------4-------|--0-------L-------|----------------|--2--L-----------|


  S  S E  E  E     E  S  S E  S  S    E  S  S E  S  S    E  S  S E  E   
----------2-----|-----4p-2-4-------|-----5p-4-5-------|-----7p-5-7-----|
--3p-2-3-----2--|--3----------3p-2-|--3----------3p-2-|--3----------3--|
----------------|------------------|------------------|----------------|
----------------|------------------|------------------|----------------|
--2----L--0--L--|------------------|------------------|----------------|
----------------|--0-------L-------|--0-------L-------|--0----------L--|


  S  S S S E  E     E  S  S E  E     E  S  S E  E     E  S  S E  S  S  
--------------0--|--5--4p-2-0-----|----------------|-----5p-4-5-------|
--2p-0---0-2-----|----------------|----------------|-------------5p-3-|
-------2---------|-------------7--|--6-------------|------------------|
-----------------|----------------|-----7--L----6--|------------------|
--0------L-------|----------------|--0--4S-5-7-----|--0-------------L-|
-----------4--L--|--2-----L-4--L--|----------0--L--|------------------|


                   ^                                    
  E  S  S E  E     H           H             H          
----------------|--5--------|--L---------||--L--------||
--5--2p-0-2-----|--2--------|--L---------||--L--------||
-------------2--|--2--------|--L--------*||--L--------||
----------------|--2--------|--L--------*||--L--------||
--L----------L--|--0--------|--L---------||--L--------||
----------------|-----------|------------||-----------||




Duration Legend
---------------
W - whole
H - half
Q - quarter
E - 8th
S - 16th
T - 32nd
X - 64th
. - note dotted
|-n-|  - n-tuplets


Tablature Legend
----------------
L - tied note
x - dead note
g - grace note
(n) - ghost note
> - accentuded note
NH - natural harmonic
AH - artificial harmonic
TH - tapped harmonic
SH - semi harmonic
PH - pitch harmonic
h - hammer on
p - pull off
b - bend
br - bendRelease
pb - preBend
pbr - preBendRelease
brb - bendReleaseBend
\n/ - tremolo bar dip
\n - tremolo bar dive
-/n - tremolo bar Release up
/n\ - tremolo bar inverted dip
/n - tremolo bar return
-\n - tremolo bar Release down
S - shift slide
s - legato slide
/ -  slide into from below or out of upwards
\ -  slide into from above or out of downwards
~ - vibrato
W - wide vibrato
tr - trill
TP - tremolo picking
T - tapping
S - slap
P - pop
< - fade in
^ - brush up
v - brush down
comments
We did not receive enough feedback on this tab! Please rate:
print report bad tab
1 2 3 4 5
I want to post or [tab]
guest
You may want to rate the tab now too:
select rating
Please do not post tabs as comments. Select "correction" instead!