Oops, an error
Loading. Please wait.

Canciones Populares De Distintos Paises - Bretona Tab

831 views 3 this week
no commentswrite comment
1 2 3 4 5
3 more votes to show rating
add to favorites
launch autoscroll
font size
0
reset
how to read this tab
guitar tuner
Autoscroll
slow
fast
+/-
esc
set tempo
stop
Help us to improve Ultimate-Guitar.com Take our survey!
×
Author
Canciones populares de distintos paises - Bretona
Andres Segovia (1893-1987):

TablEdited by Austin L Baldwin
From the Eliot Fisk video "Segovia"
Arranged by Segovia
baldwins@ticon.net
Tuning: E A D G B E  -  Time Signature: 2/4

Allegretto

 |       |        |       |        |       |        |       |        
|7---7-----7---7-|--5---5---2-----|7---7-----7---7-|--5---5---2-----|
|8---8-----8---8-|--7---7---3-----|8---8-----8---8-|--7---7---3-----|
|----------------|----------------|----------------|----------------|
|----------------|----------------|----------------|----------------|
|----------------|----------------|----------------|----------------|
|0---------------|----------------|0---------------|----------------|

 |       |        |       |        |       |        |       |        
|7---7-----7---7-|--5---5---2-----|0---0---2---2---|7-----7-----5---|
|8---8-----8---8-|--7---7---3-----|0---0---1---0---|0-----0-----4---|
|----------------|----------------|0---0-----------|------------4---|
|----------------|----------------|--------4---4---|------------4---|
|----------------|----------------|----------------|----------------|
|0---------------|----------------|----------------|7-----7---------|

 |       |        |       |        |       |        |       |        
|5---5/--2-----0-|--3-----0-------|------------0---|0-------0---2---|
|--------------1-|--5-------------|----------------|1---3-----------|
|--------------2-|--4-----0-------|----------------|----------------|
|----------------|----------------|----------------|2-----------2---|
|----------------|----------------|----------------|----------------|
|----------------|----------------|----------------|----------------|

 |       |        |       |        |       |        |       |        
|3---------2---0-|0-------0---2---|3---------2---0-|0-------0---2---|
|----------------|0---3-----------|----------------|0---3-----------|
|----------------|--0-------------|----------------|--0-------------|
|--2---0---2---4-|--------4---2---|--2---0---2---4-|----------------|
|0---------------|2---------------|3---------------|2---------------|
|----------------|----------------|----------------|----------------|

 |       |        |       |        |       |        |       |        
|3-------2---0---|2-----------2---|7---7-----7---7-|----------------|
|1---------------|------1-----3---|8---8-----8---8-|--10--10--7-----|
|----------------|------------2---|----------------|--11--11--8-----|
|2---0---2-------|2---------------|----------------|----------------|
|0---------------|0-----------2---|----------------|----------------|
|----------------|----------------|0---------------|----------------|

 |       |        |       |        |       |        |       |        
|7---7-----7---7-|----------------|--7---7-----7---|7---------------|
|8---8-----8---8-|--10--10--7-----|--8---8-----8---|8---10--10--7---|
|----------------|--11--11--8-----|----------------|----11--11--8---|
|----------------|----------------|----------------|----------------|
|----------------|----------------|----------------|----------------|
|0---------------|----------------|--0-------------|----------------|

 |       |        |       |        |       |        |       |        
|0---0---2---2---|7-----7---------|----------------|------0---------|
|0---0---1---1---|0-----0---------|10--10--10----7-|8---------------|
|0---0-----------|----------------|9---------------|9-----0---------|
|--------4---4---|----------------|10--------------|9---------------|
|----------------|----------------|----------------|----------------|
|----------------|7-----7---------|----------------|----------------|

Suggest correction
Give kudos to tab author, rate the tab!
1 2 3 4 5
comments
print report bad tab
guest
You may want to rate the tab now too:
select rating
Wanna post a correction for this tab? Suggest correction