Oops, an error
Loading. Please wait.

Fandanguillo Tab

12,545 views 15 this week
no commentswrite comment
1 2 3 4 5
please rate
add to favorites
launch autoscroll
font size
0
reset
how to read this tab
guitar tuner
Autoscroll
slow
fast
+/-
esc
set tempo
stop
Help us to improve Ultimate-Guitar.com Take our survey!
×
Author
              Suite Castellana - Fandanguillo               


                                              Andres Segovia
Untitled



     Q.     E  Q       Q    Q    Q     
E||-----------------|-----------------|
B||--5------4--0----|--5----5----5----|
G||-----------------|-----------------|
D||-----------------|-----------------|
A||-----------------|-----------------|
E||-----------------|-----------------|


  |----3---|                                
  E    E   E  H           Q    E  E  E  E   
-----------------------|-------------------|
--8h--10p--8--7--------|-------0--------1--|
-----------------------|----------0--------|
-----------------------|-------------2-----|
-----------------------|-------------------|
-----------------------|--0----------------|


  Q    Q    Q       Q    E  E  E  E     Q    Q    Q     
-----------------|-------------------|-----------------|
-------0---------|--L----0-----------|-------0---------|
--0--------------|----------0-----2--|--0--------------|
-----------------|-------------2-----|-----------------|
------------2----|-------------------|------------2----|
--L--------------|--0----------------|--0--------------|


  Q    E  E  E  E     Q    Q    Q       Q    E  E  E  E   
-------------------|-----------------|-------------------|
--L----3--------5--|-----------------|-------1--------3--|
----------2--------|--2----4---------|--L-------0--------|
-------------4-----|-----------------|-------------2-----|
-------------------|------------2----|-------------------|
--0----------------|--L--------------|--0----------------|


  Q    Q    Q       Q    E  E  E  E     Q    Q    Q     
-----------------|-------------------|-----------------|
-------1---------|--L----------------|-----------------|
--0--------------|-------4--------5--|-------0---------|
-----------------|----------4--------|--4--------------|
------------2----|-------------5-----|------------2----|
--L--------------|--0----------------|--0--------------|


  Q    E  E  E  E     Q    Q    Q       Q    Q       Q     
-------------------|-----------------|--------------------|
-------------------|-------0---------|--5----7----10g8----|
--L----2-----------|--2---------2----|--------------------|
----------2-----2--|-------0----2----|--5----7-------9----|
-------------3-----|--3--------------|--------------------|
--0----------------|--0--------------|--L-----------------|


  H.              Q    E  E  E  E     Q    Q    Q     
---------------|-------------------|-----------------|
--7------------|-------0-----------|-------0---------|
--9------------|----------0-----2--|--0--------------|
--9------------|-------------2-----|-----------------|
--7------------|-------------------|------------2----|
--L------------|--0----------------|--L--------------|


  Q    E  E  E  E     Q    Q    Q       Q    E  E  E  E   
-------------------|-----------------|----------------0--|
--0----0-----------|-------0---------|--L----3-----------|
----------0-----2--|--0--------------|----------2--------|
-------------2-----|-----------------|-------------4-----|
-------------------|------------2----|-------------------|
--0----------------|--0--------------|--0----------------|


  Q    Q    Q       Q    E  E  E  E     Q    Q    Q     
-----------------|-------------------|-----------------|
-------0---------|--L----1--------3--|-------1---------|
--2--------------|----------0--------|--0--------------|
-----------------|-------------2-----|-----------------|
------------2----|-------------------|------------2----|
--L--------------|--0----------------|--L--------------|


  Q    E  E  E  E     Q    Q    Q       Q    E  E  E  E   
-------------------|-----------------|-------------------|
--1----0--------1--|-------0---------|--L----------------|
-------------------|-----------------|-------2-----------|
----------4--0-----|--4--------------|----------2-----2--|
-------------------|------------2----|-------------3-----|
--0----------------|--0--------------|--0----------------|


                                               NH     NH    
  Q    Q    Q       Q    Q      Q       Q      Q      Q     
-----------------|--0----2----5g3----|-------<>7----<>7----|
-------0----1----|--------------0----|--7------------------|
--2--------------|--0----2-----------|--9------------------|
-------0----2----|-------------------|--9------------------|
--3--------------|-------------------|--7------------------|
--0--------------|--L----------------|--L------------------|


  Q    E  E   Q       Q    Q    Q     
--0----------------|--0----0---------|
-------------------|------------7----|
----------8p--4----|-----------------|
--7----------------|--6--------------|
-------------------|-----------------|
-------7-----------|--L----7---------|


   E   E  E   E  Q        Q     Q    Q     
----------------------|-------------------|
---8--10--8-----------|-------------------|
-------------10--9----|---L---------------|
---9------------------|--10---------------|
--10------------------|--------10---------|
---9------------------|--------------8----|


  Q    E  E  Q       Q    Q    Q       E   E  E  E  Q     
------------------|--0--------------|--------------------|
--6-------5-------|-------4----2----|--4h--5--4--2--0----|
-------4-----7----|--3--------------|--------------------|
-------5----------|--2--------------|--4-----------------|
--4---------------|-----------------|--2-----------------|
------------------|--2--------------|--------------------|


  Q    Q    Q       Q.     E  Q       Q    Q    Q     
-----------------|-----------------|-----------------|
--L--------------|--5------4-------|--5----5----7----|
-----------------|------------4----|-----------------|
-------1----4----|--7--------------|--6--------------|
--2--------------|-----------------|-----------------|
-----------------|--7--------------|--L---------7----|


   E   E  E   E  Q        Q     Q    Q     
----------------------|-------------------|
---8--10--8-----------|-------------------|
-------------10--9----|---L----------9----|
--10------------------|--------10---------|
--10------------------|--10---------------|
---8------------------|-------------------|


  Q    E  E   Q        Q     Q     Q     
-------------------|--------------------|
--7-------8--10----|--12----10----12----|
-------9-----------|--------------------|
-------------------|--------------------|
--0----------------|---0----------------|
-------------------|--------------------|


                           ^                 
  |----3---|                                 
  E    E   E   H           Q    E  E  E  E   
------------------------|--7----------------|
--8h--10p--8p--7--------|--7----------------|
--8---------------------|--8----------------|
--7---------------------|--9----------------|
------------------------|--9----6--6--6--7--|
--7---------------------|--7----------------|


  Q    Q     Q        Q     Q    Q     
------------------|-------------------|
------------------|-------------------|
------------------|-------------------|
------------------|-------------------|
--9----9----10----|--12----10----9----|
------------------|-------------------|


   E    E   E  E  Q        Q    Q    Q     
-----------------------|------------------|
-----------------------|------------------|
-----------------------|------------------|
-----------------------|------------------|
--10h--12--10--9--7----|--10----9----7----|
-----------------------|------------------|


  E    E  E  E  Q       Q    Q    Q     
---------------------|-----------------|
---------------------|-----------------|
---------------------|-----------------|
---------------------|-----------------|
--9h--10--9--7--6----|--7----6----4----|
---------------------|-----------------|


  E   E  E  E  Q       Q    E  E  E  E     Q    Q    Q     
--------------------|-------------------|--2----2----2----|
--------------------|-------4--4--4--5--|--4----4----4----|
--------------------|-------------------|-----------------|
--------------------|-------------------|-----------------|
--6h--7--6--4--2----|--2----------------|--2----2----2----|
--------------------|-------------------|-----------------|


  Q    Q    Q       E   E   E  E  Q       Q    Q    Q     
--5----4----2----|--4h--5p--4--2-------|--4----2----0----|
--4----4----4----|--2-------------5----|--2----2----2----|
-----------------|--2------------------|--2----2----2----|
-----------------|---------------------|-----------------|
--2----2----2----|---------------------|-----------------|
-----------------|--0------------------|--L--------------|


  Q    E  E  Q       Q    Q    Q       Q    E  E  Q     
------------------|-----------------|------------------|
--7---------------|--5----4----2----|--4-------2--0----|
----------9--8----|--3----3----3----|------------------|
------------------|-----------------|------------------|
------------------|-----------------|-------2----------|
-------7----------|--2----2----2----|------------------|


  Q    Q    Q       Q    E  E  E  E     Q    Q    Q     
-----------------|-------------------|-----------------|
--0--------------|-------0--------1--|-------0---------|
-----------------|----------0--------|--0--------------|
-----------------|-------------2-----|-----------------|
--L----0---------|-------------------|------------2----|
------------2----|--0----------------|--L--------------|


  Q    E  E  E  E     Q    Q    Q       Q    E  E  E  E   
-------------------|-----------------|----------------0--|
--L----0--------1--|-------0---------|--L----3-----------|
----------0--------|--0--------------|----------2--------|
-------------2-----|-----------------|-------------4-----|
-------------------|------------2----|-------------------|
--0----------------|--L--------------|--0----------------|


  Q    Q    Q       Q    E  E  E  E     Q    Q    Q     
-----------------|-------------------|-----------------|
-------3---------|--L----1--------3--|-------1---------|
--2--------------|----------0--------|--0--------------|
-----------------|-------------2-----|-----------------|
------------2----|-------------------|------------2----|
--L--------------|--0----------------|--0--------------|


  Q    E  E  E  E     Q    Q    Q       Q    E  E  E  E   
-------------------|-----------------|-------------------|
--L----0--------1--|-------0---------|--L----------------|
-------------------|-----------------|-------2-----------|
----------4--0-----|--4--------------|----------2-----2--|
-------------------|------------2----|-------------3-----|
--0----------------|--L--------------|--0----------------|


  Q    Q    Q       Q    Q       Q       H        Q     
-----------------|--------------------|----------------|
-------0----1----|--5----7----10g8----|----------------|
--2--------------|--------------------|----------------|
-------0----2----|--5----7-------9----|----------------|
--3--------------|--------------------|----------------|
--0--------------|--L-----------------|----------------|


  Q     E  E  Q       Q    Q    Q     
-------------------|-------0---------|
--------7----------|-------8---------|
-------------------|-----------------|
--------7----------|-------7----4----|
--7p-------6-------|--7--------------|
--------------7----|-----------------|


   E   E   E  E  Q       Q    E   E  E  E   
----------------------|--------------------|
----------------------|--------------------|
----------------------|-------4p--0-----5--|
----------------------|--------------------|
--10--12--10--9--7----|--------------7-----|
----------------------|--0-----------------|


  Q    Q    Q       Q    E  E  E  E   
-----------------|----------------0--|
-------0---------|--L----------------|
-----------------|-------7-----------|
--5--------------|----------7--------|
-----------------|-------------9-----|
--L---------7----|--0----------------|


     NH      NH                             
     Q       Q    Q       Q    E  E  E  E   
-----------------------|-------------------|
-----------------------|-------------------|
-----------------------|-------4--0-----5--|
----------<>12---------|-------------------|
--<>12-----------------|-------------7-----|
------------------7----|--0----------------|


  Q    Q    Q       Q    Q     Q        H.            
-----------------|------------------|--12------------|
------------5----|--7----8----12----|----------------|
--4----5---------|------------------|----------------|
-----------------|------------------|----------------|
-----------------|------------------|----------------|
-----------------|------------------|----------------|


  ^                  ^                 
  E  E  Q    Q       E  E  Q    Q      
--0---------------|--0---------------||
--0---------------|--0---------------||
--0---------------|--0---------------||
--2---------------|--2---------------||
--2---------------|--2---------------||
--0---------------|--0---------------||




Duration Legend
---------------
W - whole
H - half
Q - quarter
E - 8th
S - 16th
T - 32nd
X - 64th
. - note dotted
|-n-|  - n-tuplets


Tablature Legend
----------------
L - tied note
x - dead note
g - grace note
(n) - ghost note
> - accentuded note
NH - natural harmonic
AH - artificial harmonic
TH - tapped harmonic
SH - semi harmonic
PH - pitch harmonic
h - hammer on
p - pull off
b - bend
br - bendRelease
pb - preBend
pbr - preBendRelease
brb - bendReleaseBend
\n/ - tremolo bar dip
\n - tremolo bar dive
-/n - tremolo bar Release up
/n\ - tremolo bar inverted dip
/n - tremolo bar return
-\n - tremolo bar Release down
S - shift slide
s - legato slide
/ -  slide into from below or out of upwards
\ -  slide into from above or out of downwards
~ - vibrato
W - wide vibrato
tr - trill
TP - tremolo picking
T - tapping
S - slap
P - pop
< - fade in
^ - brush up
v - brush down
Suggest correction
Give kudos to tab author, rate the tab!
1 2 3 4 5
comments
print report bad tab
guest
You may want to rate the tab now too:
select rating
Wanna post a correction for this tab? Suggest correction