Oops, an error
Loading. Please wait.

Fantasie Sl Weiss Tab

1,307 views 6 this week
no commentswrite comment
1 2 3 4 5
excellent!
x 4
add to favorites
launch autoscroll
font size
0
reset
how to read this tab
guitar tuner
Tab Pro tools
  • play this tab
  • loop segment
  • change instrument
  • show fretboard
  • metronome
×
Best way to learn
"Fantasie Sl Weiss"
Autoscroll
slow
fast
+/-
esc
set tempo
stop
Contributor
Difficulty
intermediate
Fantasie - S.L. Weiss

as recorded by Andrés Segovia
tabbed by Alex "Zandy" Wight

     S S S S S S S S S S S S    S S S S S S S S S S S S  
E||----------0---3---7---8---|--------------2---5---7---|
B||------0-----0---5---8-----|----------3-----3---7-----|
G||----0---0---------------9-|------2-----2-----------7-|
D||--------------------------|----4---4-----------------|
A||--------------------------|--------------------------|
E||--0-----------------------|--2-----------------------|


  S S S S S S S S S  S S S    S S S  S S S S  S S S S S S S S S  
----------0---3---7p-5-7---|------------------------------3---2-|
------0-----0---5----------|----1-0h-1---3-1h-3---0---0-----0---|
----0---0----------------7-|------------------------2---0-------|
---------------------------|------------------------------------|
---------------------------|--0---------------------------------|
--3------------------------|-----------2--------3---------------|


  S S S S S S S S S S S  S S  S S S    S S S S S S S S S S S S S S S S  
----0---0---8-0-----2-----------2---|------3-2---2-------2-L-2-L-0-L-0-|
--1---0---------8-----1h-3-0h-1---0-|--------------0-----------2-L-0-L-|
------------------------------------|----2-----------2-----0-L---------|
------------------0---------------L-|----------1-----L-2-L-------------|
----------0-------------------------|--4-----L-------------------------|
------------------------------------|----------------------------------|


  S S S S S S  S S S S  S S S S S S  
----0---------------------------2-0-|
------------3p-0-----2p-0-----------|
------3----------0--------0---3-----|
--------4---------------------------|
------------------------------------|
--2-------3--------0--------2-------|


  S S  S S S S S  S S S   S  S S  S   S  S  
---------2---7-5h-7--------------12p-10-12-|
----4h-5--------------9h-10-12-------------|
-----------4-------------------9-----------|
-------------------------------------------|
--2---------------L------------------------|
--------------------0--------------------L-|


  S  S   S  S  S  S  S S S S  S S S S S S  
-----------10-12p-8---------------5-7-8-5-|
----12h-13----------10-8---5h-7-8---------|
------------------------------------------|
-------------------------0--------------L-|
--0--------------------L------------------|
------------------------------------------|


  S S S S  S  S S S S S  S S S   S S S  
----5-7-8-10p-7--------------------7---|
----------------8-7--------7-8h-10---8-|
--0---------------L---8h-9-------------|
---------------------------------------|
---------------------------------------|
--------------------8----------------L-|


  S S  S S S S S S S S S S S S S  S  
---------7-8-----0-------------7p-5-|
----8-10-----8-7-------5-7---7------|
---------------------8--------------|
------------------------------------|
--0----------L-0-----------6------L-|
-------------------7-----L----------|


  S  S S S S  S S S S  S S S S  S S S  
--3p-0---0-5p-0---0-7p-0---0-8p-0---0-|
-------4--------4--------4--------4---|
--------------------------------------|
--------------------------------------|
-----------------------------0------L-|
--0------L-2------L-3------L----------|


  S  S S S S S S S  S  S S  S  S  S  E       Q.     S  S  
--8p-0---0---------------8----11----14~--|---L-----------|
-------4-------7---10------10----10------|---------------|
-----------8-----8----11-----------------|------------14-|
-------------9---------------------------|---------------|
--0------L-------------------------------|---------------|
-----------7----------------------L------|---------------|


     NH                                          
     S  S  S  S  S  S  S S  S  S  S S  S S  S S  
-------14-12-11-12------------12-11-9-11-7------|
-----0-------------------------------------10-7-|
--<>12-------------12-11-9-11-------------------|
----------------------------9-------------------|
------------------------------------------------|
------------------------------------------------|


   S  S  S  S  S   S  S  S S  S  S S S S  S  S  
-----------------------------------------------|
-----12-10--------10---------------------------|
--12-------12-11~----12-11-9-12-11-9---8h-9-11-|
-----------------------------------------------|
-----------------------------------------------|
---0---------------------------------0-------L-|


  S S S S S S S S S S S S S S S S    Q    Q    Q    Q     
--------------0-------------------|--0--------------7----|
------0-----0---------------------|-------8----7---------|
----5-----0-------------9---8---8-|-----------------7----|
--7-----7-------------7---9---7---|------------9---------|
----------------7---9-------------|--7-------------------|
------------------7---------------|----------------------|


  E  S S E  E  E  S S E  E     E  E  E  E  E.  T  T E  E   
--7--5-4-5-----5------5-----|--5-----3-----2--------2-----|
---------7--5--4--2-0-2--4--|--5-----5-----5---3p-2-3-----|
--6-------------------------|-----4-----4--------------4--|
----------------------------|-----------------------------|
----------------------------|-----------------------------|
----------------------------|-----------------------------|


  E  E  E  E  E  E  E  E     E   E  E  E  S S S S E  E   
--0--3--2--0-----2-----7--|--L---7--6--L--7-------5-----|
--2--0--------3--L--------|--5---L--------7-------5-----|
--------3-----4--L--------|-----------------------------|
--------------------0--L--|---------4-------------------|
--------------2--L--------|--4---L-----7--6---4-2-4--6--|
--------------------------|-----------------------------|


  E  E   E  E  E  S S E  E     E  E  E  E  E  S  S E  E   
-----0------0--0------------|--0--2--3--5--2----------3--|
--8--L--12--L-----4-2-4--L--|-----------------1h-3-0-----|
----------------------4--2--|--0--------5----------------|
---------------4------------|-----4--2-----0----------L--|
--7--L--10--L---------------|----------------------------|
----------------------------|----------------------------|


  E  E  E  T  T S E  E  E  E      E  E   E  E  E  T  S. E  E   
--------3--2p-0-2-3--5--7-----|---------10--------5h-7--5--3--|
---------------------------8--|--10---------7--8--------5-----|
-----2------------0--------L--|------7------------------------|
--0-------------L-------------|-------------------------------|
------------------------------|---9---------L--7--------3--L--|
------------------------------|-------------------------------|


  T  T S E  E  E  E  E  E  E     E  E  E  E  E  E  E  E   
--2p-0-2----3--------0--------|--------0-----------------|
---------3-----0--1-----3--1--|--0--------------4--5--7--|
------------------------------|-----0--------------------|
--0---------------------------|--------------------------|
------------2-----0-----------|-----------0--2--L--4--6--|
------------------------2-----|--3-----L-----------------|


  E  E  E  E   E  E  E  E     E   E  E   E   E   E   E  E   
---------------------7-----|--8------9------10------11-----|
--8-----9-----10-----------|-----10-------------10---------|
-----9-----7------9--------|-------------------------------|
--------------10--L-----9--|--7---L------------------9--7--|
--7--L---------------------|------------10---9---L---------|
---------------------------|-------------------------------|


  S  S  S  S S  S S  S S  S  S  S S  S  S S  
----12----12---12---12---12-12-10-8---------|
-------12----8----------------------12-10-8-|
--0---------------9-------------------------|
--------------------------------------------|
-----------------------0--------------------|
--------------------------------------------|


  S  S  S  S S  S S  S S  S  S S S  S S S  
----10----10---10---10---10-10-8-7--------|
-------10----7---------------------10-8-7-|
------------------7----0------------------|
------------------------------------------|
--9---------------------------------------|
------------------------------------------|


  S S S S S S S S S S S S  S S S S    S S S S S S S S S S S  S S S S S  
----8---8---8---8---8-8-7----------|----7---7---7---7---7-7p-5---7---7-|
------8---5---------------10-8-7---|------7--------------------8-------|
--------------5------------------9-|----------8--------------------7---|
-----------------------------------|--------------9--------------------|
--7---------------9----------------|-----------------------------------|
-----------------------------------|--7---------------0----------------|


  S S S S S S S S S  S S S S S S  S    S S S  S S S S S E  E  E  E   
--------7---5---5-------------------|-------------------------------|
------5---7---5-----10-7-----8------|----7--------7--------5--8--5--|
----5--------------------8-----9----|------9--------8---------------|
---------------------------------10-|--------10-------9-------------|
--0-------------L-------------------|--0------L---------------------|
------------------7------L-8------L-|-----------7-----L-0-----------|


  E  E  E  E  E  S S E  E     E  S S E  E  E  E  E  E   
--------7-----7--5-4-5-----|--5------5-----3-----0-----|
--7------------------7--5--|--4--2-0-2--4--5-----0-----|
-----4--7--4--6------------|---------------------------|
---------------------------|---------------------------|
---------------------------|---------------------------|
---------------------------|------------------0--3--0--|


  E  S S E  E  E  E  E  E     E  E  E  E  E  E  E  E   
--0----L-------0--L--2--L--|--3--L--4--L--5--L--7--L--|
---------4--L-----0-----0--|-----0-----5-----5-----9--|
--2----L-4--L--------------|--------------------------|
---------------------------|--------0--L--------------|
-------0-2--0--------------|--------------3--L--------|
--2--3---------3--L--2--L--|--0--L--------------7--L--|


                                                 ^         
  S  S  S S E  E  S  S S S E  E     E  E  E  S S H         
--8~-7p-5------------------------|-----0---------0--------|
----------8-7--5--4p-2-----------|-----0-----4---0--------|
-----------------------4-2-------|-----------4---1--------|
---------------------------5--4--|--2--L---------2--------|
--0------------L--2-----------L--|--------2--L---2--------|
---------------------------------|---------------0--------|


  W                  
--L----------------||
--L----------------||
--L----------------||
--L----------------||
--L----------------||
--L----------------||




Duration Legend
---------------
W - whole
H - half
Q - quarter
E - 8th
S - 16th
T - 32nd
X - 64th
. - note dotted
|-n-|  - n-tuplets


Tablature Legend
----------------
L - tied note
x - dead note
g - grace note
(n) - ghost note
> - accentuded note
NH - natural harmonic
AH - artificial harmonic
TH - tapped harmonic
SH - semi harmonic
PH - pitch harmonic
h - hammer on
p - pull off
b - bend
br - bendRelease
pb - preBend
pbr - preBendRelease
brb - bendReleaseBend
\n/ - tremolo bar dip
\n - tremolo bar dive
-/n - tremolo bar Release up
/n\ - tremolo bar inverted dip
/n - tremolo bar return
-\n - tremolo bar Release down
S - shift slide
s - legato slide
/ -  slide into from below or out of upwards
\ -  slide into from above or out of downwards
~ - vibrato
W - wide vibrato
tr - trill
TP - tremolo picking
T - tapping
S - slap
P - pop
< - fade in
^ - brush up
v - brush down
comments
print report bad tab
I want to post or [tab]
guest
You may want to rate the tab now too:
select rating
Please do not post tabs as comments. Select "correction" instead!