Oops, an error
Loading. Please wait.

Segovia Study No 9 Tab

556 views 1 this week
no commentswrite comment
1 2 3 4 5
please rate
add to favorites
launch autoscroll
font size
0
reset
how to read this tab
guitar tuner
Tab Pro tools
  • play this tab
  • loop segment
  • change instrument
  • show fretboard
  • metronome
Autoscroll
slow
fast
+/-
esc
set tempo
stop
Contributor
#----------------------------------PLEASE NOTE---------------------------------#
#This file is the author's own work and represents their interpretation of the #
#song. You may only use this file for private study, scholarship, or research. #
#------------------------------------------------------------------------------#
================================================================================
          Title: Opus 31 No.20
         Artist: Fernando Sor
 Transcribed by: Kevin J. Manges, braumstr@bright.net 
                 (formerly braumeister@centuryinter.net & Kevinm2556@aol.com)
Downloaded from: http://members.tripod.com/~Braumeister/index.htm 
           Note: See MIDI/MP3 here also.
     Difficulty: Moderate
         Update: 18 May 99 0530  (2nd draft)
================================================================================  

                                Op31 No.20

Transcribed by Kevin J. Manges                             Fernando Sor

 (1)                             V       IV
E||--0----0----|--0----8----7----5----|--4-------------------|
B||--1----0----|--1----5--------------|-------6\---5----0----|
G||--2\---1/---|--2---------7----5----|--4--------------7----|
D||------------|------------0---------|-------7\---6----6/---|
A||------------|-------0---------6----|--7-------------------|
E||------------|----------------------|----------------------|
     1    1       1    4    4    1       1    2    2    4
     2            2    1    3    1       1    3    3    3
                                 2       4               

(4) V    II--------
E|----------------------|--0---------0----0----|--0----8----7----5----|
B|-------2----3----4----|------------1----3----|--1----5--------------|
G|--5----2----2----2----|--1---------2----1----|--2---------7----5----|
D|--7----5----4----3\---|--2----0--------------|------------0---------|
A|----------------------|------------3----2----|--0--------------6----|
E|----------------------|----------------------|----------------------|
    1    1    2    4       1         1    4       1    4    4    1
    3    1    1    1       2         2    1       3    1    3    1
         4    3    2                 3    2                      2

 (7)
E|--4----3----2----1----|--0-------------------|-------0----0----0----|
B|----------------------|-------3----1----0----|--1---------1----3----|
G|--4----3----2----1----|--0----2----0----0----|--0---------0----1----|
D|----------------------|-------3----2----3----|--2-------------------|
A|--7----4----5----2----|--3-------------------|--3---------3----2----|
E|----------------------|-------1----3----3----|----------------------|
    1    1    1    1       3    4    1    4                 1    3
    1    1    1    1            2    0    3                 3    1
    4    2    4    2            3    2                           2
                                1    3

(10)               V       IV                     V    II
E|--0----8----7----5----|--4-------------------|----------------------|
B|--1----5--------------|-------6\---5----0----|-------2----3----4----|
G|--2---------7----5----|--4--------------7----|--5----2----2----2----|
D|------------0---------|-------7\---6----6/---|--7----5----4----3----|
A|--0--------------6----|--7-------------------|----------------------|
E|----------------------|----------------------|----------------------|
    1    4    4    1       1    2    2    4       1    1    2    4
    2    1    3    1       1    3    3    3       3    1    1    1
                   2       4                           4    3    2



(13)                                      V       IV  III   II   I
E|--0---------0----0----|--0----8----7----5----|--4----3----2----1----|
B|-------0----1----3----|--1----5----6----7----|--5----5----3----3----|
G|--1----1----2----1----|--2---------7----5----|--4----3----2----1----|
D|--2----0--------------|------------0---------|----------------------|
A|------------3----2----|--0--------------6----|--7----4----5----2----|
E|----------------------|----------------------|----------------------|
    1         1    4       1    4    4    1       1    1    1    1
    2         2    1       2    1    2    3       2    3    2    3
              3    2                 3    1       1    1    1    1
                                          2       4    2    4    2



(16)                                            1/2II           I
E|--0-------------------|-----------3----4----|--5----3----1----2----|
B|--1----3----1----0----|--1--------5----3----|--2----5----3----1----|
G|--0----2----0----0----|--0--------5----3----|--2----6---------1----|
D|-------3----2----3----|--2------------------|----------------------|
A|--3-------------------|--3------------------|----------------------|
E|-------1----3----3----|---------------------|----------------------|
    1    4    1    4                1    2       4    1    1    2
    3    2    2    3                4    1       1    3    3    1
         3    3                     3    1       1    4         1
         1                  



(19)
E|--3----1----0----0----|--0----0----0-----------|--0--------0----0----|
B|--0----3----1----3----|--1----0--------3-1---3-|-----------0----0----|
G|--0----4---------1----|--2---------2-----------|--1--------1----1----|
D|----------------------|------------------------|-----------2----0----|
A|------------3----2----|--0---------------------|---------------------|
E|----------------------|-------3----1-----------|--0------------------|
    2    1    1    4       1    3    2   4 1   4
         3    3    1       2         1
         4         2

(22)
E|--0---------0----0----|--0----8----7----5----|--3----1----0---------|
B|--1/--------3----3----|--1--------------5----|--5----3----1----3----|
G|--2---------4----4----|------------7---------|-----------------4----|
D|----------------------|----------------------|--0---------2---------|
A|--3----0--------------|--0--------------3----|----------------------|
E|------------4----0----|------------7---------|-----------------0----|
    1         1    1            4    4    4       1         1    1
    2         3    3                 3    3       3         2    2
    3         2                      2    1                       

(25                                                   III   II
E|-------0----0----0----|--0----5\---4/---7\---|--5----3----2----1----|
B|--1----1----3----3----|--1-------------------|-------5\---3----3----|
G|--2---------4----4----|-------5\---4/---7\---|--5----3----2----1----|
D|----------------------|----------------------|------------0---------|
A|--0-------------------|--0-------------------|--0----4---------2----|
E|------------4----0----|------------0---------|----------------------|
    1    1    1    1            4    4    4       4    3    1    1
    2         3    3            3    3    3       3    1    3    3
              2                                        2    2    1
                                                                 2

(28)                                      III      V              I
E|--0-------------------|-------0--1--3----4----|--5----3----1----2----|
B|--1/---3\---1----0----|--1----------5----3----|-------5----3----1----|
G|--2/---4----2----1----|--2----------5----3----|--6----5---------1----|
D|-------0----2---------|-----------------------|--7-------------------|
A|--3-------------------|--0--------------------|----------------------|
E|-----------------0----|-----------------------|----------------------|
    1    1    1    1               1  1    2       1    1    1    2
    2    2    3                       4    1       2    4    3    1
    3         2                       3    1       3    3         1

(31)
E|--3----1----0----0----|--0----0----0-----------|--0--------0----0----|
B|--0----3----1----3----|--1----0--------3-1---3-|-----------0----0----|
G|--0----4---------1----|--2---------2-----------|--1--------1----1----|
D|----------------------|------------------------|-----------2----0----|
A|------------3----2----|--0---------------------|---------------------|
E|----------------------|-------3----1-----------|--0------------------|
    2    1    1    4       1    3    2   4 1   4
         3    3    1       2         1
         4         2

(34)
E|--0---------0----0----|--0----8----7----5----|--3\---1----0---------|
B|--1---------3----3----|--1--------------5----|--5\---3----1----3\---|
G|--2---------4----4----|--2----5----7---------|-----------------4\---|
D|----------------------|----------------------|--0---------2---------|
A|--3----0--------------|--0----0---------3----|----------------------|
E|------------4----0----|------------7---------|-----------------0----|
    1         1    1       1    4    4    4       1    1    1    1
    2         3    3       2    1    3    3       3    3    2    2
    3         2    0                 2    1                       


(37)                                                  III        I
E|-------0----0----0----|--0----5\---4/---7\---|--5----3----2----1----|
B|--1---------0----3----|--1-------------------|-------5\---3----3----|
G|--2---------1----4----|-------5\---4/---7\---|--5----3----2----1----|
D|----------------------|----------------------|------------0---------|
A|--0-------------------|--0-------------------|--0----4---------2----|
E|------------0----0----|------------0---------|----------------------|
    1              1            4    4    4       4    1    2    1
    2              3            3    3    3       3    3    3    3
                                                       1    1    1
                                                       2         2

(40)                       II
E|--0-------------------|-------------------||
B|--1/---3\---1----0----|-------------------||
G|--2/---4----2----1/---|--2----------------||
D|-------0----2----0----|-------------------||
A|--3-------------------|--3----------------||
E|-----------------0----|--5----------------||
    1    1    1    1       1
    2    2    3            2
    3         2            4

Sor:  Op31 No.20 (Study #9)
Transcribed by Kevin J. Manges
comments
We did not receive enough feedback on this tab! Please rate:
print report bad tab
1 2 3 4 5
I want to post or [tab]
guest
You may want to rate the tab now too:
select rating
Please do not post tabs as comments. Select "correction" instead!