Oops, an error
Loading. Please wait.

What You Wanted tab

529 views 1 this week
no commentswrite comment
1 2 3 4 5
3 more votes to show rating
add to favorites
×
Save as Personal and add changes to this tab that will be seen only by you. Learn more ›
×
You can save this tab as Personal to edit and correct it or add notes. All changes will be seen only by you. Learn more »
launch autoscroll
font size
0
reset
how to read this tab
guitar tuner
edit
Autoscroll
slow
fast
+/-
esc
set tempo
stop
Hello Everybody!  Thank you so much for checking out my tab for this incredible song. It was alot of fun to 
tab, as it was soooo beautiful. Andrew Allen originally does this song with a loop pedal, so if you have one,
you can give it a shot :D.  If you want to check out my music that would be awesome, as alot of it
is just like this song :D (https://www.youtube.com/channel/UC2eWvIh35enhqOzEBIbpxFw).  Anyways, I hope you
enjoy this song, and that I got this tab right xD! Cheers.

Capo 5.
 

[Intro]


[Guitar 1]

e|--3--3-3-3---3--3-3-3---3--3-3-3---3--3-3-3--|
B|--3--3-3-3---3--3-3-3---3--3-3-3---3--3-3-3--|
G|--0--0-0-0---0--2-2-2---0--0-0-0---0--2-2-2--|
D|----------------0---------------------0------|
A|-----3---------------------3-----------------|
E|-3-3--------0-0--------3-3--------0-0--------|


[Guitar 2]

e|-----------------------------0-3-3-2------------------------------------------|
B|-----------------------------0-3-3-3------------------------------------------|
G|[Rest for 2 counts of-4]-----0-0---2------------------------------------------|
D|-----------------------------------0------------------------------------------|
A|-------------------------------3----------------------------------------------|
E|-----------------------------3---0--------------------------------------------|


[Verse 1]

[Guitar 1]

e|--3--3-3-3---3--3-3-3---3--3-3-3---3--3-3-3--|
B|--3--3-3-3---3--3-3-3---3--3-3-3---3--3-3-3--|
G|--0--0-0-0---0--2-2-2---0--0-0-0---0--2-2-2--|
D|----------------0---------------------0------|
A|-----3---------------------3-----------------|
E|-3-3--------0-0--------3-3--------0-0--------|(x8)


[Guitar 2]

e|----------------------------|
B|----------------------------| 
G|[Rest for 6 counts of-4]----|
D|----------------------------|
A|----------------------------|
E|----------------------------|


e|3-3-3-2-----|
B|0-3-3-3-----|   
G|0-0---2-----|
D|------0-----|
A|--3---------|
E|3---0-------|(x5)


[Chorus]

[Guitar 1] 

For all of the chorus's, on guitar 1, just strum.
e|--3--3--3--2---|
B|--3--3--3--3---|
G|--0--0--0--2---|
D|--0--2--2--0---|
A|--2--3--2------|
E|--3-----0------|(x4)

[Guitar 2]

e|3-3-3-2-----|
B|0-3-3-3-----|   
G|0-0---2-----|
D|------0-----|
A|--3---------|
E|3---0-------|(x4)


[Verse 2]

[Guitar 1]

e|--3--3-3-3---3--3-3-3---3--3-3-3---3--3-3-3--|
B|--3--3-3-3---3--3-3-3---3--3-3-3---3--3-3-3--|
G|--0--0-0-0---0--2-2-2---0--0-0-0---0--2-2-2--|
D|----------------0---------------------0------|
A|-----3---------------------3-----------------|
E|-3-3--------0-0--------3-3--------0-0--------|(x8)


[Guitar 2]

e|----------------------------|
B|----------------------------| 
G|[Rest for 6 counts of-4]----|
D|----------------------------|
A|----------------------------|
E|----------------------------|


e|3-3-3-2-----|
B|0-3-3-3-----|   
G|0-0---2-----|
D|------0-----|
A|--3---------|
E|3---0-------|(x5)


[Chorus]

[Guitar 1] 

For all of the chorus's, on guitar 1, just strum.
e|--3--3--3--2---|
B|--3--3--3--3---|
G|--0--0--0--2---|
D|--0--2--2--0---|
A|--2--3--2------|
E|--3-----0------|(x4)

[Guitar 2]

e|3-3-3-2-----|
B|0-3-3-3-----|   
G|0-0---2-----|
D|------0-----|
A|--3---------|
E|3---0-------|(x4)


[Bridge]

Strum these chords one at a time, staccato, exept the last 3, Hold them for longer

e|-0-0-0-0-3-3-3-3-0-0-0-0-2-2-2-2-0-0-0-0-3-3-3-3---0-0----2---|
B|-1-1-1-1-0-0-0-0-0-0-0-0-3-3-3-3-1-1-1-1-0-0-0-0---0-0----3---|   
G|-0-0-0-0-0-0-0-0-0-0-0-0-2-2-2-2-0-0-0-0-0-0-0-0---0-0----2---|
D|-2-2-2-2-0-0-0-0-2-2-2-2-0-0-0-0-2-2-2-2-0-0-0-0---2-2----0---|
A|-3-3-3-3-2-2-2-2-2-2-2-2---------3-3-3-3-2-2-2-2---2-2--------|
E|---------3-3-3-3-0-0-0-0-----------------3-3-3-3---0-0--------|


[Chorus]

[Guitar 1] 

For all of the chorus's, on guitar 1, just strum.
e|--3--3--3--2---|
B|--3--3--3--3---|
G|--0--0--0--2---|
D|--0--2--2--0---|
A|--2--3--2------|
E|--3-----0------|(x8)

[Guitar 2]

e|3-3-3-2-----|
B|0-3-3-3-----|   
G|0-0---2-----|
D|------0-----|
A|--3---------|
E|3---0-------|(x8)
Suggest correction
Creating personal tab
Creating personal tab
You can edit any tab online and save it as your Personal.

You can edit, replace or remove any tab part or add personal notes – all changes will be seen only by you.

Personal tabs can be accessed anytime from any device, even offline.
Learn more »
Give kudos to tab author, rate the tab!
1 2 3 4 5
comments
print report bad tab
guest
You may want to rate the tab now too:
select rating
Wanna post a correction for this tab? Suggest correction