Oops, an error
Loading. Please wait.

Two More Time tab

532 views 1 this week
no commentswrite comment
1 2 3 4 5
3 more votes to show rating
add to favorites
×
Save as Personal and add changes to this tab that will be seen only by you. Learn more ›
×
You can save this tab as Personal to edit and correct it or add notes. All changes will be seen only by you. Learn more »
launch autoscroll
font size
0
reset
how to read this tab
guitar tuner
edit
Autoscroll
slow
fast
+/-
esc
set tempo
stop
----------------------------------------------------------------------------
                     TWO MORE TIME - Andrew Austin
-----------------------------------------------------------------------------
Tabbed by: Holly Brown
Email: xx[dot]revolutionary[at]hotmail[dot]com

Tuning: standard, capo 6.

Yes, the song from the Ritz commercial!

This is tabbed based off of the YouTube video of his performance in Guelph,
so if it turns out to be different than the recorded version then I'm sorry.
The switching between C/E and Cmaj seems to be arbitrary and he might just
have been forgetting to do C/E, but I've tabbed it out exactly as I can see
it in the video.

The lyrics are, again, just what I can hear, if anyone's got better ones
(hey, Andrew, if you see this and want to correct it, please do!) then post
'em here.

This song is copyright Andrew Austin and I have no claims to it, just want
ta help people play this cute little song for themselves.

Andrew's website is here. http://www.andrewaustin.ca/


Chords:

C/E
x32013

Csus2
x30013

F
133211

G
320001

Gadd11
320013

C
x32010

G6
320000




Intro:
Listen to the recording on YouTube to hear the pattern better, I don't know
how to tab it better than this. First section is two pick-up notes, played
once.


() - round brackets mean let it ring
h  - hammer-on
p  - pull-off

        C/E       C/E   Csus2    Csus2      C/E

e|------(3)-| |--3-3-3----3---3-(3)--------(3)---------------------------|
B|------(1)-| |--1-1-1----1---1-(1)--------(1)---------------------------|
G|------(0)-| |--0-0-0----0---0-(0)--------(0)---------------------------|
D|------(2)-| |--2-2-2----0h2h0-(0)--------(2)---------------------------|
A|-3----(3)-| |--3-3-3----3---3-(3)--2--3--(3)---------------------------| x2
E|----------| |----------------------------------------------------------|
                           


 C/E                             F
    Try to keep my head above my wits


                        C/E
    up in a swivel, only stick


                             G     Gadd11   G
    for a minute, while I'm in it, we will see.


 C/E
    My nerves're all like rattled,


           F
    and my worries sound like a kettle callin',


    C/E
    my love for you is like a battle,


            G    Gadd11  G
    it goes ragin' on in me.





        F         C/E
    It's two, two, two
    

         F         C/E      G   Gadd11 G
    Only two, two, two more time


        F          C/E
    Only two, two, two

        
        F          C/E      G   Gadd11 G
    Only two, two, two more time





 C/E
    Baby there's a chance that if I


    F
    danced with you tomorrow,


              C/E
    you'll be more than just a friend


                   G   Gadd11   G
    we'll end up sitting in a tree.


        C/E
    And if I made those eyes at you,


          F
    would your heart grow up a size or two?


               C/E
    Would there be no more goodbyes from you,


    G     Gadd11   G
    forever we will be


 


   F          C/E   
    two, two, two,


        F          C/E      G  Gadd11 G
    only two, two, two more time.


        F          C/E
    Only two, two, two,


        F         C/E       G  Gadd11 G
    only two, two, two more time.




BRIDGE

e|------(3)-| |--3-3-3----3---3-(3)--------(3)---------------------------|
B|------(1)-| |--1-1-1----1---1-(1)--------(1)---------------------------|
G|------(0)-| |--0-0-0----0---0-(0)--------(0)---------------------------|
D|------(2)-| |--2-2-2----0h2h0-(0)--------(2)---------------------------|
A|-3----(3)-| |--3-3-3----3---3-(3)--2--3--(3)---------------------------| x3
E|----------| |----------------------------------------------------------|



       F            C/E
    Or at least if I tried


    F             C/E   G6   C
    maybe you'd be mine


                     F
    to hold, mine to keep out of the cold


               C
    no time to shiver as they tell us


         G        Gadd11   G
    to control the way we feel.


    C
    When you make those eyes at me


       F
    my heart grows up a size or three


        C/E
    and some far-off July will see


       G      Gadd11   G
    us married by the sea.





        F         C/E
    Only two, two, two


        F         C/E       G   Gadd11   G
    Only two, two, two more time.


        F         C/E
    Only two, two, two,


       F          C/E       G  Gadd11  G
    Only two, two, two more time.


      F           C/E
    Only two, two, two,


      F           C/E
    only two, two, two,


      F           C/E       G  Gadd11  G
    only two, two, two more time.


    F               C/E  G6   C
    Maybe you'll be mine.



    C   F   C/E   G  Gadd11 G 



       F           C/E
    Only two, two, two,


       F          C/E       G  Gadd11 G
    only two, two, two more time.


       F          C/E       G  Gadd11 G
    Only two, two, two more time.


        F               C/E  G6  C/E
    Oh, maybe you'll be mine.



ENDING

e|------(3)-| |--3-3-3----3---3-(3)--------(3)---------------------------|
B|------(1)-| |--1-1-1----1---1-(1)--------(1)---------------------------|
G|------(0)-| |--0-0-0----0---0-(0)--------(0)---------------------------|
D|------(2)-| |--2-2-2----0h2h0-(0)--------(2)---------------------------|
A|-3----(3)-| |--3-3-3----3---3-(3)--2--3--(3)---------------------------| x4
E|----------| |----------------------------------------------------------|





This tab by Holly Brown is an interpretation only, not official or for use
for profit. [=


Aug 2 2010


************************************

| /   slide up
| \   slide down
| h   hammer-on
| p   pull-off
| ~   vibrato
| +   harmonic
| x   Mute note
| b   Bend
| pb  Pre-bend
| br  Bend release
| pbr Pre-bend release
| brb Bend release bend

************************************
Suggest correction
Creating personal tab
Creating personal tab
You can edit any tab online and save it as your Personal.

You can edit, replace or remove any tab part or add personal notes – all changes will be seen only by you.

Personal tabs can be accessed anytime from any device, even offline.
Learn more »
Give kudos to tab author, rate the tab!
1 2 3 4 5
comments
print report bad tab
guest
You may want to rate the tab now too:
select rating
Wanna post a correction for this tab? Suggest correction