Oops, an error
Loading. Please wait.

Fatal Shore Tab

4,433 views 36 this week
no commentswrite comment
1 2 3 4 5
excellent!
x 4
add to favorites
launch autoscroll
font size
0
reset
how to read this tab
guitar tuner
Autoscroll
slow
fast
+/-
esc
set tempo
stop
Help us to improve Ultimate-Guitar.com Take our survey!
×
Author
Difficulty
intermediate
Fatal Shore - Andrew Bird
Standard Tuning - No Capo

Chords
    C          G          D         Am          F          E         B7
e---0---   e---3---   e---2---   e---0---   e---1---   e---0---   e---2---|
B---1---   B---0---   B---3---   B---1---   B---1---   B---0---   B---0---|
G---0---   G---0---   G---2---   G---2---   G---2---   G---1---   G---2---|
D---2---   D---0---   D---0---   D---2---   D---3---   D---2---   D---1---|
A---3---   A---2---   A---x---   A---0---   A---3---   A---2---   A---2---|
E---x---   E---3---   E---x---   E---x---   E---1---   E---0---   E---X---|

Intro
C-G-D-C
C-G-D-Am

Verse
            F   C           E   Am
Would it be easier, so much easier?
       D     G                  D            G
If you never knew us, would you ever fear anymore?
       D     G                  B7              C
If you never knew us, would you meet on a Fatal Shore,

on a Fatal Shore?

Interlude
G-D-Am

e-----------------------------------------------------------------------------|
B--3-3-1-0---------------1p0-1-3/5-3-3-1-0-------0----------------------------|
G----------2-2-0---------------------------2-2-2------------------------------|
D----------------4-2----------------------------------------------------------|
A-----------------------------------------------------------------------------|
E-----------------------------------------------------------------------------|

e----------------------------------------------------------------------------|
B--1p0-1-3/5-3-3-1-0----------------1p0-1-3/5-3-3-1-0-------0----------------|
G--------------------2-2-0----------------------------2-2-2------------------|
D--------------------------4-2-----------------------------------------------|
A----------------------------------------------------------------------------|
E----------------------------------------------------------------------------|

Chorus
Am                     G       D  Am
When are you comin' to shore
              G        D Am
to never fear anymore?
                      G                      D Am
You'll never know any doubt, know any doubt
                           G                       D Am
like we who breathe in and out, breathe in and out.
                      G                       D Am
We who breathe in and out, breath in and out.
                      G                       D Am
We who breathe in and out, breathe in and out.
                  G                        D Am
We breathe in and out, breathe in and out.

Oh no.

Interlude [X2] Just Chords
G-D-Am

Verse 2
          F     C           E  Am
Are you a breather, mail receiver?
             D         G
If you could see right through us,
            D                        G
through our clothes, and through our pores.
             D                 G
If you could see right through us, you're
      B7              C
gonna run into your homes and lock your doors.

Interlude
G-D-Am

e-----------------------------------------------------------------------------|
B--3-3-1-0---------------1p0-1-3/5-3-3-1-0-------0----------------------------|
G----------2-2-0---------------------------2-2-2------------------------------|
D----------------4-2----------------------------------------------------------|
A-----------------------------------------------------------------------------|
E-----------------------------------------------------------------------------|

e----------------------------------------------------------------------------|
B--1p0-1-3/5-3-3-1-0----------------1p0-1-3/5-3-3-1-0-------0----------------|
G--------------------2-2-0----------------------------2-2-2------------------|
D--------------------------4-2-----------------------------------------------|
A----------------------------------------------------------------------------|
E----------------------------------------------------------------------------|

Whistling Bit
G-D-Am

Chorus
Am                     G                   D               Am
When are you comin' to shore, comin' shore, comin' to shore
                 G                  D      Am
to never fear anymore, fear anymore, fear?
                      G                    D          Am
You'll never know any doubt, know any doubt, know any doubt
                           G    D Am
like we who breathe in and out.
                      G    D Am
We who breathe in and out.
                      G    D Am
We who breathe in and out.
                      G                       D Am
We who breathe in and out, breathe in and out.
                      G                   D                   Am
We who breathe in and out, breathe in and out, breathe in and out.
          G  D  Am
Off shore.
          G  D  Am
Off shore.

Outro
G-D-Am
Continue through the finish of the song.  End on Am.

Key for the Interlude
p = pull-off
/ = slide
Suggest correction
comments
print report bad tab
guest
You may want to rate the tab now too:
select rating
Please do not post tabs as comments. Select "correction" instead!