Oops, an error
Loading. Please wait.

Heretics Tab

21,835 views 15 this week
3 commentsread comments
1 2 3 4 5
accurate
x 9
add to favorites
launch autoscroll
font size
0
reset
how to read this tab
guitar tuner
Tab Pro tools
  • play this tab
  • loop segment
  • change instrument
  • show fretboard
  • metronome
×
Best way to learn
"Heretics"
Autoscroll
slow
fast
+/-
esc
set tempo
stop
Difficulty
intermediate
Andrew Bird
Heretics
Armchair Apocrypha
Tabbed by Nathan A.


INTRO
---------------------------------------------|
---------------------------------------------|
---------------------------------------------|
---5--3---5----3--5--3---------5---3---------|
-6--6---6---6-------------6------6-----------|
-----------------------------4---------------|

---------------------------------------------|
---------------------------------------------|
--------------3------------------------------|
---5--3--3--5---5--3---3---------------------|
-6--6--6-------------6---6-------------------|
----------------------------4--4--4----------|

-------------|
--8-8-8-8-8--|
--8-8-8-8-8--|
--8-8-8-8-8--|
-------------|
-------------|

Violin
--6--8--11--8--6-------------------------|
-----------------8--6--8-----------------|
-------------------------8--10--8~--8/10-|
-----------------------------------------|
-----------------------------------------|
-----------------------------------------|

--6--8--11--8--6-------------------------|
-----------------8--6--8-----------------|
-------------------------8--10--8~-------|
-----------------------------------------|
-----------------------------------------|
-----------------------------------------|

-------------|
--8-8-8-8-8--|
--8-8-8-8-8--|
--8-8-8-8-8--|
-------------|
-------------|

--6--8--11--8--6-------------------------|
-----------------8--6--8-----------------|
-------------------------8--10--8~--8/10-|
-----------------------------------------|
-----------------------------------------|
-----------------------------------------|

--6--8--11--8--6-------------------------|
-----------------8--6--8-----------------|
-------------------------8--10--8~-------|
-----------------------------------------|
-----------------------------------------|
-----------------------------------------|

---------------------1----|
-------------0--2--4---4--|
--1--3--1--3--------------|
--------------------------|
--------------------------|
--------------------------|

-------------|
--8-8-8-8-8--|  slowly pick through em
--8-8-8-8-8--|
--8-8-8-8-8--|
-------------|
-------------|

----------------------|
-------4--------------|
--3--5---5--3---------|
--------------5--3--5-|
----------------------|
----------------------|

------------------------------------|
----4-----4-------7----------9----9-|
--0---0-0---0---8---------10------9-|
--------------9-----9--11------11-9-|
------------------------------------|
------------------------------------|


------------------------------------------------------------|
----12------12------12------12------12-----12---12-12-11-11-|
--9----9--9----9--11---11-11--11--9----9-9----9-------------|
------------------------------------------------------------|
------------------------------------------------------------|
------------------------------------------------------------|
this is thrown in after the part above it gets like 3/4 through and on these chords you 
the notes in-between
--7---9-----------[----]
--9---11----------[--3-] The sectioned off part is just played on the second
--9---11----------[--3-]time it's very quiet but at 1:34
------------------[--6-]
------------------[----]
------------------[----]

1:40
----------------------------|
--4--8--6--11--8--4--6--3---|
----------------------------|
----------------------------|
----------------------------|
----------------------------|

1:47
--------------|
--4~~~///9--8-|
--------------|
--------------|
--------------|
--------------|

1:54
-------6---------|
--8--6--8---6----|
----------8---7--|
-----------------|
-----------------|
-----------------|
2:01
----6--4--2----2--4--7-|
--4----------4---------|
-----------------------|
-----------------------|
-----------------------|
-----------------------|

----7----7------7-----7------7-----7---7-7-6-6-|
--9---9-9--9--7---7-7---7--9---9-9---9---------|
-----------------------------------------------|
-----------------------------------------------|
-----------------------------------------------|
-----------------------------------------------|

----7-----7-----7-----7-----7-----7-----|
--9---9-9---9-7---7-7---7-6---6-6---6-7-|
----------------------------------------|
----------------------------------------|
----------------------------------------|
----------------------------------------|

2:19
--7----9-----------|
--9----11----------|
--9----11-------2--|
----------------2--|
----------------4--|
-------------------|

Fantastic band, hope you have as much fun playing this as I do.
comments
print report bad tab
3 comments total.
0 reply
TehMasterSword wrote on January 18 2009, 07:44 pm

Some of it could be written out a bit clearer, but sounds pretty accurate to me

0 reply
Angela21216 wrote on July 17 2014, 03:44 am

Lack of accuracy.

0 reply
The Fourth wrote on July 18 2014, 02:29 pm

Lack of accuracy.

I want to post or [tab]
guest
You may want to rate the tab now too:
select rating
Please do not post tabs as comments. Select "correction" instead!