Oops, an error
Loading. Please wait.

Puma chords

version 2
version 2

Whole song

  • This song can definitely be played with just chord... Show more
370 views 3 this week
no commentswrite comment
1 2 3 4 5
x 4
add to favorites
×
Save as Personal and add changes to this tab that will be seen only by you. Learn more ›
×
You can save this tab as Personal to edit and correct it or add notes. All changes will be seen only by you. Learn more »
launch autoscroll
font size
0
reset
transpose
0
reset
display chords
guitar tuner
edit
Autoscroll
slow
fast
+/-
esc
set tempo
stop
Author
About this tab version
This song can definitely be played with just chords and no fills, but I tabbed them in case anyone wanted them. I did my best to make the guitar and violin parts playable with a single guitar. Was this info helpful? Yes No
Strumming
There is no strumming pattern for this song yet. and get +5 IQ
-------------------------------------------------------------------------------
                                  Puma - Andrew Bird
                                    Are You Serious
-------------------------------------------------------------------------------


[Intro]

e|----------------------------------------------------------------------------------|
B|--------------------------------------------------3-------------------------------|
G|---0-2-0------0------------0-2-0-------0----------2-------------------------------|
D|--0-----0----0-0--4--4----0-----0-----0-0--4--4/0-0-------------------------------|
A|------------2-----5--5---------------2-----5--5-----------------------------------|
E|---------3------------------------3-----------------------------------------------|


[Verse 1]

                G              D
Do you see particles in the air?
              G              D
Unguided particles in the air
           Em               Bm          
Do you see particles in the air?
            Em              D 
Nobody know notices, nobody cares, oh
D                                D
Don't try to tell her she's less feline than human



[Guitar/Violin Fill 1]

                                                              Cause it gives...
e|-----------------------10-8-7-----------------------------------------------------|
B|-----------------------------10-8-7-----------------------------------------------|
G|-7-5-4----------7-5-4--------------9-7-7-5-4--------7-5-4---7-7-7-----------------|
D|------7-5-4----------7----------------------7-5-4-----------7-7-7-----------------|
A|------------7-5----------------------------------7-5--------5-5-5-----------------|
E|----------------------------------------------------------------------------------|


[Pre-Chorus]

D              Eb                        Bb              D
Cause it gives rise to the rumor she’s a girl, and not a puma
        Eb                         Bb                 D
And the light that shines is not a pearl, it's just a tumor


[Chorus]

             G                    D
She was radioactive for seven days
                   G                  D
How I wanted to be holding her anyways
                      Em               Bm
But the doctors, they told me to stay away
                 Em                   D 
Due to flying neutrinos and the gamma rays, oh


[Guitar/Violin Fill 2]

e|-----------------------10-8-7-----------------------------------------------------|
B|-----------------------------10-8-7-----------------------------------------------|
G|-7-5-4----------7-5-4--------------9-7--------------------------------------------|
D|------7-5-4----------7------------------------------------------------------------|
A|------------7-5-------------------------------------------------------------------|
E|----------------------------------------------------------------------------------|


[Bridge Fill]

e|----------------------------------------------------------------------------------|
B|----------------------------------------------------------------------------------|
G|---0-2-0------0------------0-2-0-------0------------------------------------------|
D|--0-----0----0-0----------0-----0-----0-0--4--4----0-1-2-----2-1-4-4-4-5-5-5------|
A|------------2-----5------------------2-----5--5---2-----2---2----2-2-2-2-2-2------|
E|---------3------------------------3----------------------0------------------------|

e|----------------------------------------------------------------------------------|
B|----------------------------------------------------------------------------------|
G|-----------------------play fill 1------------------------------------------------|
D|--0-1-2-----2-0-------------------------------------------------------------------|
A|-2-----2---2----------------------------------------------------------------------|
E|--------0-------------------------------------------------------------------------|


(play bridge fill or chords)

                G        D
Do you see particles?
            G         D
Unguided particles
     Em    Bm     Em    D 
Particles
D                                D
Don't try to tell her she's less feline than human


[Guitar/Violin Fill 1]

                                                              Cause it gives...
e|-----------------------10-8-7-----------------------------------------------------|
B|-----------------------------10-8-7-----------------------------------------------|
G|-7-5-4----------7-5-4--------------9-7-7-5-4--------7-5-4---7-7-7-----------------|
D|------7-5-4----------7----------------------7-5-4-----------7-7-7-----------------|
A|------------7-5----------------------------------7-5--------5-5-5-----------------|
E|----------------------------------------------------------------------------------|


[Pre-Chorus]

D              Eb                        Bb              D
Cause it gives rise to the rumor she’s a girl, and not a puma
Eb                            Bb                  D
Don't try to tell her she's a girl, that's just a rumor


[Chorus]

             G                    D
She was radioactive for seven days
                   G                  D
How I wanted to be holding her anyways
                      Em               Bm
But the doctors, they told me to stay away
                 Em                   C# 
Due to flying neutrinos and the gamma rays, oh
             G                    D
She was radioactive for seven days
                   G                  D
How I wanted to be holding her anyways
                      Em               Bm
But the doctors, they told me to stay away
                 Em                   D 
Due to flying neutrinos and the gamma rays, oh


[Guitar/Violin Outro]

e|-----------------------10-8-7-----------------------------------------------------|
B|-----------------------------10-8-7-----------------------------------------------|
G|-7-5-4----------7-5-4--------------9-7-7-5-4-----------------------------3--------|
D|------7-5-4----------7----------------------7-7-5-4-5---------------3-5-7-4-7-----|
A|------------7-5--------------------------------------6---5-6-5-3-5-6-------5------|
E|----------------------------------------------------------------------------------|


e|----------------------------------------------------------------------------------|
B|----------------------------------------------------------------------------------|
G|---------------------------3-------------------------------------3----------------|
D|-7-5-4-5--------------3-5-7-7-5-7-----7-5-4-5---------------3-5-7-7-5-7-----------|
A|--------6--5-6-5-3-5-6-----------------------6-3-5-6-5-3-5-6----------------------|
E|----------------------------------------------------------------------------------|


e|----------------------------------------------------------------------------------|
B|----------------------------------------------------------------------------------|
G|-3---------3------------7---------------------------------------------------------|
D|--7-5-7-----7-5-7----4-7----------------------------------------------------------|
A|----------5---------5-------------------------------------------------------------|
E|----------------------------------------------------------------------------------|



************************************

| /  Slide up

************************************

            
            
Suggest correction
Creating personal tab
Creating personal tab
You can edit any tab online and save it as your Personal.

You can edit, replace or remove any tab part or add personal notes – all changes will be seen only by you.

Personal tabs can be accessed anytime from any device, even offline.
Learn more »
comments
print report bad tab
guest
You may want to rate the tab now too:
select rating
Wanna post a correction for this tab? Suggest correction