Oops, an error
Loading. Please wait.

Roma Fade Chords

version 2
version 2

Whole song

  • This version is much easier to read, has more accu... Show more
49 views 12 this week
no commentswrite comment
1 2 3 4 5
3 more votes to show rating
add to favorites
launch autoscroll
font size
0
reset
transpose
0
reset
simplify chords
display chords
guitar tuner
Autoscroll
slow
fast
+/-
esc
set tempo
stop
Help us to improve Ultimate-Guitar.com Take our survey!
×
Author
Difficulty
novice
About this tab version
This version is much easier to read, has more accurate chords to the studio version of the song, and contains the solo riff and outro riff. Was this info helpful? Yes No
Strumming
Everything less the Pre-Chorus 138 bpm
1
&
2
&
3
&
4
&
Play
Is this strumming pattern correct? Yes No
[Intro]

(Violin & Whistling)
Dm Am Bb Gm BbMaj7 A

F A7 Dm E7 Am A7

(Guitar enters)
Dm Am Bb Gm BbMaj7 A


[Verse 1]

        Dm
See her light, how it reigns
                Am
So hard on your high plains
        Bb       Gm
So you take such pains
               Dm         A
That she won't notice you
         Dm
And your x-rays
              Am
Of your Paleo man

All gaze
         Bb         Gm
How they rest, and play
          Dm
Slowly corrupting you
  C                                    F
I wonder what the chance is you wanted to
E                        Am
A thousand vacant stares won't make it true
        A7
Make it true


[Pre-Chorus]

Gm            C                        F     F#m  Gm
You need a witness just to know you're there
                      C                        F    F#m  Gm
From the tips of your fingers, every strand of hair
                   C                     F
You know someone's watching you watching me watching you
    F#m                     Gm
And all that we look upon
            C                        A    A
You may not know me but you feel my stare


[Chorus]

           Dm
And if she sees you, it changes you
                  Am
Rearranges your molecules
           Bb
And if you see her, it changes her
Gm                  Dm           A
She's a danger now, after school
           Dm
And if she sees you, it changes you
                  Am
Rearranges your molecules
           Bb
And if you see her, it changes her
Gm                  Dm
She'll be seeing you after school
C                       F
Here's where gentlemen avert their eyes
E                       Am
Maybe she's a gentleman in disguise
      A7
In disguise


[Pre-Chorus]

Gm            C                        F     F#m  Gm
You need a witness just to know you're there
                      C                        F    F#m  Gm
From the tips of your fingers, every strand of hair
                   C                     F
You know someone's watching you watching me watching you
    F#m                     Gm
And all that we look upon
            C                     A
You may not know me but you feel my      stare
stare


[Instrumental]

Dm Am Bb Gm Dm Am

(Violin)
e|-----------5-3-3-5-------5-3--5-----------5-3-3-5---|
B|---3---3-6----------3--6----------------6-----------|
G|----------------------------------5---5-------------|
D|----------------------------------------------------|
A|----------------------------------------------------|
E|----------------------------------------------------|

e|-----------5-3-3-5------5-3-----------5-3-3---------|
B|---------3-----------3------3-2--2-5--------6-5-----|
G|---3---3-----------3--------------------------------|
D|----------------------------------------------------|
A|----------------------------------------------------|
E|----------------------------------------------------|


[Bridge]

         Dm              Am
And if I see you, how it changes me
           Bb   Gm        Dm
And if you see me, how it changes you
A
Changes you
         Dm              Am       
And if I see you, how it changes me
           Bb   Gm        Dm
And if you see me, how it changes you
A
Changes you


[Outro]

Bb  F Am Bb Gm Dm A   
Bb  F Am Bb Gm Dm Am 
Dm

[Ending]
e|--------------------------------------------|
B|--------------------------------------------|
G|--------2-0-0-2------2-0-2---------2-0-0-2--|
D|--0-0-3----------0-3---------0-0-3----------|
A|--------------------------------------------|
E|--------------------------------------------|


0r alternatively:

e|--------5-3-3-5------5-3-5---------5-3-3-5--|
B|--3-3-6----------3-6---------3-3-6----------|
G|--------------------------------------------|
A|--------------------------------------------|
E|--------------------------------------------|

Suggest correction
Give kudos to tab author, rate the tab!
1 2 3 4 5
comments
print report bad tab
guest
You may want to rate the tab now too:
select rating
Wanna post a correction for this tab? Suggest correction