Oops, an error
Loading. Please wait.

Scythian Empires Tab

3,445 views 1 this week
no commentswrite comment
1 2 3 4 5
2 more votes to show rating
add to favorites
launch autoscroll
font size
0
reset
how to read this tab
guitar tuner
Autoscroll
slow
fast
+/-
esc
set tempo
stop
Help us to improve Ultimate-Guitar.com Take our survey!
×
Capo
3rd fret
-------------------------------------------------------------------------------
                             Scythian Empires - Andrew Bird
-------------------------------------------------------------------------------
Tabbed by: Me

Tuning: Standard
Capo 3
relative to capo

e|----------------|----------------|----------------|----------------|
B|-3---3---3---3--|-1---1---1---1--|-1---1---1---1--|-1---1---1---1--|
G|--0---0---0---0-|--2---2---2---2-|--0---0---0---0-|--0---0---0---0-|
D|---0---0---0---0|---2---2---2---2|---2---2---2---2|---2---2---2---2|
A|2---2---2---2---|0---0---0---0---|3---3---3---3---|3---3---3---3---|
E|----------------|----------------|----------------|----------------|

The guitar enters on the third measure, and just repeats like this for the whole song.  Enjoy.
Suggest correction
Give kudos to tab author, rate the tab!
1 2 3 4 5
comments
print report bad tab
guest
You may want to rate the tab now too:
select rating
Wanna post a correction for this tab? Suggest correction