Oops, an error
Loading. Please wait.

Why Tab

1,935 views 1 this week
2 commentsread comments
1 2 3 4 5
please rate
add to favorites
launch autoscroll
font size
0
reset
how to read this tab
guitar tuner
Autoscroll
slow
fast
+/-
esc
set tempo
stop
Help us to improve Ultimate-Guitar.com Take our survey!
×
Author
Difficulty
novice
hllo!!well this is my first tab so i hope you enjoy!(and it doesnt suck) its pretty 
to the violin that he playes but its an acoustic version that i put together myself!! its 
close to the original!!


part 1 (main part repeated)
e|--------------------------------------------------------------------------|
B|--------------------------------------------------------------------------|
G|--------------------------------------------------------------------------|
D|-----5-x-5-5-x-5-5---5\5-x-5-5-x-5--5-5----7-x--7-------------------------|
G|-----5-x-5-5-x-5-5---5\6-x-6-6-x-6--6-6----9-x--9---------8-10-10-8-10----|
A|-----3-x-3-3-x-3-3---3\4-x-4-4-x-4--4-4---10-x-10--10-x-10----------------|
E|--------------------------------------------------------------------------|

some of the riffs he plays are

   damn you for  be-in s-o  eas-y go-in
e|--------------------------------------------------------------------------|
B|--------------------------------------------------------------------------|
G|---5---3------------------------------------------------------------------|
D|-----------5---3\1--3\1---3/5-3--1----------------------------------------|
G|-----------------------------------3--------------------------------------|
A|--------------------------------------------------------------------------|
E|--------------------------------------------------------------------------|
   or a curse you put on me
e|----------------------------------------------------------------------------------|
B|----------------------------------------------------------------------------------|
G|----3---5---6---7---8--7----------------------------------------------------------|
D|--5-------------------------------------------------------------------------------|
G|----------------------------------------------------------------------------------|
A|----------------------------------------------------------------------------------|
E|----------------------------------------------------------------------------------|

  i thought that time would tell
e|---------------------------------------------|
B|-(10)101010101010101010-(11)111111111111111--|
G|---------------------------------------------|
D|---------------------------------------------|
A|---------------------------------------------|
E|---------------------------------------------|

 thts bassic;y it! all the solos are on G so u can improvise!! great song!!! please rate!!
Suggest correction
Give kudos to tab author, rate the tab!
1 2 3 4 5
comments
print report bad tab
2 comments total.
0 reply
worsethansex 106 wrote on November 27 2007, 08:18 pm

What? This has seven strings... get it together.

0 reply
dmckenzie 457 wrote on January 23 2008, 06:53 pm

yeah the other tab is a lot better... not really sure what this is

guest
You may want to rate the tab now too:
select rating
Wanna post a correction for this tab? Suggest correction