Oops, an error
Loading. Please wait.

Lonely Boy Tab

2,114 views 3 this week
no commentswrite comment
1 2 3 4 5
3 more votes to show rating
add to favorites
launch autoscroll
font size
0
reset
how to read this tab
guitar tuner
Autoscroll
slow
fast
+/-
esc
set tempo
stop
Help us to improve Ultimate-Guitar.com Take our survey!
×
Author
Particular favourite solo of mine, and thought it was about time I tabbed it out.

As ever, any comments good or bad are most welcome.

TAB Legend:

h       - Hammer-on 
p       - Pull-off
b       - Bend note 
r       - Return from bend
s       - Slide
~       - Vibrato


e|------------------------------------------------------------|----------------------------------|
B|--------------------------17b19-r17-------------------------|----------------------------------|
G|--16b18r16p14-------14-16-----------16b18r16p14-------------|-13-13-13-13-13-13b14-14b16-16b18-|
D|--------------16-14-----------------------------14h16-14h16-|----------------------------------|
A|------------------------------------------------------------|----------------------------------|
E|------------------------------------------------------------|----------------------------------|



e|-------14-14----14-16-17-16-17b19-r17-14-------------------|
B|-14-17-------17--------------------------17-14-17b19-17b19-|
G|-----------------------------------------------------------|
D|-----------------------------------------------------------|
A|-----------------------------------------------------------|
E|-----------------------------------------------------------|



e|--------------------------------------------------------------|
B|-r17s19-17h19-19-19-19-19-17h19-19-19-19-19-17h19-19-19-19-19-|
G|--------------------------------------------------------------|
D|--------------------------------------------------------------|
A|--------------------------------------------------------------|
E|--------------------------------------------------------------|



e|-------17-17-17-17----17-19b21r19p17-----|-17-19b21-19b21-17-19-19b21r19p17-----------|
B|-17h19-------------19----------------19--|----------------------------------19b22-r19-|
G|-----------------------------------------|--------------------------------------------|
D|-----------------------------------------|--------------------------------------------|
A|-----------------------------------------|--------------------------------------------|
E|-----------------------------------------|--------------------------------------------|



e|-17-19-19b21-r19p17-19-19b21r19-17---------------------------------------------------------|
B|-----------------------------------19b22-r19-19b22-r19-19b22-r19-19b22-r19-19b22-r19-19b22-|
G|-------------------------------------------------------------------------------------------|
D|-------------------------------------------------------------------------------------------|
A|-------------------------------------------------------------------------------------------|
E|-------------------------------------------------------------------------------------------|



e|-------------16-17p16-17p16-17-16-17-19-17----17-19b21r19p17----17----17-19b21-r19~~~-19s2-|
B|-17-19-17-19-------------------------------19----------------19----19----------------------|
G|-------------------------------------------------------------------------------------------|
D|-------------------------------------------------------------------------------------------|
A|-------------------------------------------------------------------------------------------|
E|-------------------------------------------------------------------------------------------|

Suggest correction
Give kudos to tab author, rate the tab!
1 2 3 4 5
comments
print report bad tab
guest
You may want to rate the tab now too:
select rating
Wanna post a correction for this tab? Suggest correction