Oops, an error
Loading. Please wait.

1999 chords

370 views 3 this week
2 commentsread comments
1 2 3 4 5
3 more votes to show rating
add to favorites
×
Save as Personal and add changes to this tab that will be seen only by you. Learn more ›
×
You can save this tab as Personal to edit and correct it or add notes. All changes will be seen only by you. Learn more »
launch autoscroll
font size
0
reset
transpose
0
reset
simplify chords
display chords
guitar tuner
edit
Autoscroll
slow
fast
+/-
esc
set tempo
stop
Author
Strumming
There is no strumming pattern for this song yet. and get +5 IQ
[Intro]

e|--0-0-0-0---6-6-6--7-7--2-2-2-2/4-4-4-4-4-4--------------------------------|
B|--0-0-0-0---6-6-6--7-7--2-2-2-2/4-4-4-4-4-4--------------------------------|
G|--2-2-2-2---8-8-8--9-9--4-4-4-4/6-6-6-6-6-6--------------------------------|  x2
D|--2-2-2-2---8-8-8--9-9--4-4-4-4/6-6-6-6-6-6--------------------------------|
A|--0-0-0-0---6-6-6--7-7--2-2-2-2/4-4-4-4-4-4--------------------------------|
E|--0-0-0-0------------------------------------------------------------------|

e|-0-0-0--0-0--0-0--2--2--0--------------------------------------------------|
B|-0-0-0--0-0--0-0--2--2--0--------------------------------------------------|
G|-2-2-2--4-4--2-2--2--2--2--------------------------------------------------|
D|-2-2-2--4-4--2-2--4--4--2--------------------------------------------------|
A|-x-x-x--x-x--0-0--4--4--0--------------------------------------------------|
E|-2-2-2--4-4--0-0--2--2--0--------------------------------------------------|


[Verse 1]
                 F#m     G#m        Asus     Bsus        Asus
all the boys and all the girls just want one thing, it's love
                   F#m          G#m       Asus      Bsus     Asus
it's been a little while since we've been running with your drugs
                       F#m    G#m      Asus  Bsus Asus
i'll take you back in time to nineteen ninty-nine tonight
                 F#m   G#m       Asus       Bsus   Asus
when i was ready to be yours and lose these sordid lights

e|--0-0-0-0---6-6-6--7-7--2-2-2-2/4------------------------------------------|
B|--0-0-0-0---6-6-6--7-7--2-2-2-2/4------------------------------------------|
G|--2-2-2-2---8-8-8--9-9--4-4-4-4/6------------------------------------------|
D|--2-2-2-2---8-8-8--9-9--4-4-4-4/6------------------------------------------|
A|--0-0-0-0---6-6-6--7-7--2-2-2-2/4------------------------------------------|
E|--0-0-0-0------------------------------------------------------------------|


[Chorus 1]

                        Asus
but if you come around here
       Bsus                           G#m     C#
you'll see you don't mean anything at all to me
                          F#m       G#m    Asus
but you've been making it harder to go any farther
     Bsus         Asus
you choke and you bleed


[Verse 2]

                 F#m     G#m        Asus     Bsus        Asus
all the boys and all the girls just want one thing, it's love
                 F#m     G#m        Asus     Bsus   Asus
all the air and all the blood won't stop me packing up
              F#m     G#m     Asus     Bsus        Asus
i'll take you back to when we said we'd only have ourselves
                 F#m    G#m     Asus  Bsus    Asus
but it seems now every heaven of mine is your hell

e|--0-0-0-0---6-6-6--7-7--2-2-2-2/4------------------------------------------|
B|--0-0-0-0---6-6-6--7-7--2-2-2-2/4------------------------------------------|
G|--2-2-2-2---8-8-8--9-9--4-4-4-4/6------------------------------------------|
D|--2-2-2-2---8-8-8--9-9--4-4-4-4/6------------------------------------------|
A|--0-0-0-0---6-6-6--7-7--2-2-2-2/4------------------------------------------|
E|--0-0-0-0------------------------------------------------------------------|


[Chorus 2]

                        Asus
but if you come around here
       Bsus                           G#m     C#
you'll see you don't mean anything at all to me
                          F#m       G#m    Asus
but you've been making it harder to go any farther
    Bsus         Asus
you choke and you bleed
                        Asus
but if you come around here
       Bsus                           G#m     C#
you'll see you don't mean anything at all to me
                          F#m       G#m    Asus
but you've been making it harder to go any farther
     Bsus         Asus
you choke and you bleed


e|--0-0-0-0---6-6-6--7-7--2-2-2-2/4-4-4-4-4-4--------------------------------|
B|--0-0-0-0---6-6-6--7-7--2-2-2-2/4-4-4-4-4-4--------------------------------|
G|--2-2-2-2---8-8-8--9-9--4-4-4-4/6-6-6-6-6-6--------------------------------|  2x
D|--2-2-2-2---8-8-8--9-9--4-4-4-4/6-6-6-6-6-6--------------------------------|
A|--0-0-0-0---6-6-6--7-7--2-2-2-2/4-4-4-4-4-4--------------------------------|
E|--0-0-0-0------------------------------------------------------------------|


[Verse 1]

                 F#m     G#m        Asus     Bsus        Asus
all the boys and all the girls just want one thing, it's love
                   F#m          G#m       Asus      Bsus     Asus
it's been a little while since we've been running with your drugs
                       F#m    G#m      Asus  Bsus Asus
i'll take you back in time to nineteen ninty-nine tonight
                 F#m   G#m       Asus       Bsus   Asus
when i was ready to be yours and lose these sordid lights

e|--0-0-0-0---6-6-6--7-7--2-2-2-2/4------------------------------------------|
B|--0-0-0-0---6-6-6--7-7--2-2-2-2/4------------------------------------------|
G|--2-2-2-2---8-8-8--9-9--4-4-4-4/6------------------------------------------|
D|--2-2-2-2---8-8-8--9-9--4-4-4-4/6------------------------------------------|
A|--0-0-0-0---6-6-6--7-7--2-2-2-2/4------------------------------------------|
E|--0-0-0-0------------------------------------------------------------------|


[Chorus 2]

                        Asus
but if you come around here
       Bsus                           G#m     C#
you'll see you don't mean anything at all to me
                          F#m       G#m    Asus
but you've been making it harder to go any farther
    Bsus         Asus
you choke and you bleed
                        Asus
but if you come around here
       Bsus                           G#m     C#
you'll see you don't mean anything at all to me
                          F#m       G#m    Asus
but you've been making it harder to go any farther
     Bsus         Asus
you choke and you bleed
                        Asus
but if you come around here
       Bsus                           G#m     C#
you'll see you don't mean anything at all to me
                          F#m       G#m    Asus
but you've been making it harder to go any farther
     Bsus         Asus
you choke and you bleed



            
            
Suggest correction
Creating personal tab
Creating personal tab
You can edit any tab online and save it as your Personal.

You can edit, replace or remove any tab part or add personal notes – all changes will be seen only by you.

Personal tabs can be accessed anytime from any device, even offline.
Learn more »
Give kudos to tab author, rate the tab!
1 2 3 4 5
comments
print report bad tab
2 comments total.
0 reply
copperwreck 1,379 Mar 14, 2016 12:02 AM

Are the chords in the intro tab really correct? x46622 seems a bit of a stretch. Also x97799 stands out from the other sus2-chords, should it be x79977?
Final comment, are the sus-chords sus2? Normally sus refers to sus4.

0 reply
noplace 130 Mar 14, 2016 08:26 AM

Thank you for the imput!

guest
You may want to rate the tab now too:
select rating
Wanna post a correction for this tab? Suggest correction