Oops, an error
Loading. Please wait.

A Song Dedicated To The Memory Of Stormy The Rabbit chords

version 2
version 2

Whole song

  • Greatly improves on accuracy/location and organization of existing tab.
46 views 9 this week
2 commentsread comments
1 2 3 4 5
2 more votes to show rating
add to favorites
×
Save as Personal and add changes to this tab that will be seen only by you. Learn more ›
×
You can save this tab as Personal to edit and correct it or add notes. All changes will be seen only by you. Learn more »
launch autoscroll
font size
0
reset
transpose
0
reset
simplify chords
display chords
guitar tuner
edit
Autoscroll
slow
fast
+/-
esc
set tempo
stop
About this tab version
Greatly improves on accuracy/location and organization of existing tab. Was this info helpful? Yes No
Strumming
There is no strumming pattern for this song yet. and get +5 IQ
[Intro]
E|-------------------------|
B|-------------------------|
G|-------------------------|
D|-------------------------|
A|---7-7---5-5---3-3---3-3-|
E|-5-----3-----1-----1-----| (x3)

E|-------------------------|
B|-------------------------|
G|-------------------------|
D|-------------------------|
A|---2-2---2-2---2-2---2-2-|
E|-0-----0-----0-----0-----|

[Verse 1]
E|-------------------------|
B|-------------------------|
G|-------------------------|
D|-------------------------|
A|---7-7---5-5---3-3---3-3-|
E|-5-----3-----1-----1-----|
   For four fortnights I have fled from my fortress

E|-------------------------|
B|-------------------------|
G|-------------------------|
D|-------------------------|
A|---7-7---5-5---3-3---3-3-|
E|-5-----3-----1-----1-----|
   Foraging forests five footsteps in length

E|-------------------------|
B|-------------------------|
G|-------------------------|
D|-------------------------|
A|---7-7---5-5---3-3---3-3-|
E|-5-----3-----1-----1-----|
   Fortitude found within forty ounce bottles

E|-------------------------|
B|-------------------------|
G|-------------------------|
D|-------------------------|
A|---7-7---5-5---3-3---3-3-|
E|-5-----3-----1-----1-----|
   Flowing like flies from your face
           E7
From your face
Am               G                         F
My neighborhood has been filled brim with black cats
     Am        G            F
And when I go driving they walk in my path
         E7
All the time, every time

[Chorus]
Am G F
(Humming)
Am G F
(Humming)
Am G F E7
(Humming)

[Verse 2]
Am            G              F
First we were babies, we're birthing and dying
 Am           G               F
Then we were children, we're playing and crying
 Am             G           F
Then we're teenagers we're smoking and fucking
Am             G            F
Now we're all grownup and we're sadly sighing
     Am          G           F
And lacking but lurking and licking our wounds
        Am        G           F
We've created by lusting and lying
       E7
To ourselves and to others 

[Chorus]     
             Am  G   F      E7
We're sadly sigh-igh-igh-ighing
             Am  G   F 
We're sadly sigh-igh-igh-ighing
             Am  G   F    
We're sadly sigh-igh-igh-ighing
             Am  G   F    
We're sadly sigh-igh-igh-ighing

[Outro]
    Am          G     F
And I'd like to be a big ball of meat
     Am      G       F
For bees can buzz around and eat
       E7
When I die, so I might be granted
              Am
One sense of purpose
Suggest correction
Creating personal tab
Creating personal tab
You can edit any tab online and save it as your Personal.

You can edit, replace or remove any tab part or add personal notes – all changes will be seen only by you.

Personal tabs can be accessed anytime from any device, even offline.
Learn more »
Give kudos to tab author, rate the tab!
1 2 3 4 5
comments
print report bad tab
2 comments total.
0 reply
tristanfheck 10 Jul 28, 2017 12:29 PM

this is already pretty good are u sure that there is no vhord change after f sigh before ighing? i have problems singing it that way. I really enjoyed how good you presented the intro

guest
You may want to rate the tab now too:
select rating
Wanna post a correction for this tab? Suggest correction