Oops, an error
Loading. Please wait.

Distance solo tab

version 1
version 1

Solo

Whole song

Interactive

2,395 views 21 this week
4 commentsread comments
1 2 3 4 5
x 7
add to favorites
×
Save as Personal and add changes to this tab that will be seen only by you. Learn more ›
×
You can save this tab as Personal to edit and correct it or add notes. All changes will be seen only by you. Learn more »
launch autoscroll
font size
0
reset
how to read this tab
guitar tuner
edit
Autoscroll
slow
fast
+/-
esc
set tempo
stop
Andrew Jackson Jihad- Distance (Guitar Solo)

Tuning- E A D G B E (Standard tuning)

Hammer On = h

Slide Up = /

Slide Down = \

I broke this up into 2 licks because it can be a bit tricky to get the whole thing first time.
But please do listen to the song with the tab. Enjoy.

Lick 1:

E -------------------------------------------------------------------------|
B--7--7--7h9---------------------------------------------------------------|
G ---8--8----8-----/11-9-8----------------8--------------------------------|
D -------------------------11-9----/9-11---11-9----------------------------|
A ------------------------------------------------11-9---------------------|
E--------------------------------------------------------------------------|

Lick 2:

E ------------------------------/14-12---------11-12-11---- 14/16\14--------|
B---/12-12-12-11-9-11-9-7------------12---14---------- 12-------------------|
G -------------------------8------------------------------------------------|
D---------------------------------------------------------------------------|
A---------------------------------------------------------------------------|
E --------------------------------------------------------------------------|

            
            
Suggest correction
Creating personal tab
Creating personal tab
You can edit any tab online and save it as your Personal.

You can edit, replace or remove any tab part or add personal notes – all changes will be seen only by you.

Personal tabs can be accessed anytime from any device, even offline.
Learn more »
comments
print report bad tab
4 comments total. Showing first comments.
0 reply
acasta 10 Mar 19, 2014 08:29 PM

Not sure if the last part is right? the [11-12-11 ...] before the slide at the end.
Doesn't sounds correct when I play it next to the track, but that could be just me :)

0 reply
acasta 10 Mar 19, 2014 08:38 PM, edited on March 20 2014, 12:39 am

This sounds closer to me:

E ------------------------------/14-12----------9-11-12-11-----14/16\14-----|B---/12-12-12-11-9-11-9-7------------12-------------------12----------------|G -------------------------8------------------------------------------------|D---------------------------------------------------------------------------|A---------------------------------------------------------------------------|E --------------------------------------------------------------------------|

0 reply
ginger420 50 Jun 14, 2014 12:15 PM

E ------------------------------/14-12-------9-11-12-11---- 14/16\14-------
B---/12-12-12-11-9-11-9-7------------14-12-------------12------------------
G -------------------------8-----------------------------------------------
D--------------------------------------------------------------------------
A--------------------------------------------------------------------------
E -------------------------------------------------------------------------

I think this is the end.

guest
Wanna post a correction for this tab? Suggest correction