Oops, an error
Loading. Please wait.

Fucc The Devil solo tab

version 2
version 2

Solo

436 views 12 this week
2 commentsread comments
1 2 3 4 5
3 more votes to show rating
add to favorites
×
Save as Personal and add changes to this tab that will be seen only by you. Learn more ›
×
You can save this tab as Personal to edit and correct it or add notes. All changes will be seen only by you. Learn more »
launch autoscroll
font size
0
reset
how to read this tab
guitar tuner
edit
Autoscroll
slow
fast
+/-
esc
set tempo
stop
Author
Difficulty
-------------------------------------------------------------------------------
                Fucc The Devil (solo v2.0) - Andrew Jackson Jihad
-------------------------------------------------------------------------------
Yo. Credit to raphrapstrash for the original tab. I basically copy pasted his work
and just fixed up some of the mistakes. Playing through this I'm pretty sure this 
tab is actually like 99% correct. You could use the old one I suppose but its
pretty hard to follow and there are a lot of bits where its just completely wrong.
I recommend this version.

-flengle

^ - accent
/ - slide
b - bend

e|-----------------------------------------------------------------|
B|-----------------------------------------------------------------|
G|--------------------------------------------7-9-11-/12--12-12--14|
D|---------------^-^-^------------------7-9-10---------------------|
A|-9--9-9--7-5---5-6-7----------7-9-10-----------------------------|
E|-7--7-7--5-3---3-4-5----7-9-10-----------------------------------|

e|-----------12-12b^v--------12--------------------------14--15~---|
B|-12-12--15---------15~12-13--13~12-15-12~10-13-10-13/15--15-----|
G|-----------------------------------------------------------------|
D|-----------------------------------------------------------------|
A|-----------------------------------------------------------------|
E|-----------------------------------------------------------------|

P.S Zach is Lame
Suggest correction
Creating personal tab
Creating personal tab
You can edit any tab online and save it as your Personal.

You can edit, replace or remove any tab part or add personal notes – all changes will be seen only by you.

Personal tabs can be accessed anytime from any device, even offline.
Learn more »
Give kudos to tab author, rate the tab!
1 2 3 4 5
comments
print report bad tab
2 comments total.
0 reply
raphrapstrash 89 Mar 14, 2016 12:50 AM

Oh I think this is more right than mines. Very good

guest
You may want to rate the tab now too:
select rating
Wanna post a correction for this tab? Suggest correction