Oops, an error
Loading. Please wait.

Hate Rain On Me Tab

1,582 views 3 this week
no commentswrite comment
1 2 3 4 5
please rate
add to favorites
launch autoscroll
font size
0
reset
how to read this tab
guitar tuner
Autoscroll
slow
fast
+/-
esc
set tempo
stop
Help us to improve Ultimate-Guitar.com Take our survey!
×
Author
-------------------------------------------------------------------------------
                             Hate, Rain On Me - Andrew Jackson Jihad
-------------------------------------------------------------------------------

This song as already been tabbed on this site, but it was only the chords so I 
decided to tab out all the guitars that are playing in the song.



Tabbed by: Fender 52/Greenscuz/Papa Smurf (I have so many names now)
E-mail: guitarkid81@gmail.com

Tuning: Standard

Guitar 1
Intro

e|-7--8--7--5--7--8--7--|
B|----------------------|
G|----------------------|
D|----------------------|
A|----------------------|
E|----------------------|

Verse

e|-7--8--7--5--3--5--2----7--8--7--5--3--5--2-3-5-8--|
B|---------------------------------------------------|
G|---------------------------------------------------|
D|---------------------------------------------------|
A|---------------------------------------------------|
E|---------------------------------------------------|


Chorus

e|-7--5--3----7--5--3----|
B|-----------------------|
G|-----------------------|
D|-----------------------|
A|-----------------------|
E|-----------------------|


Pre-Verse

e|-7--8--7--|
B|----------|
G|----------|
D|----------|
A|----------|
E|----------|

Final Chorus

e|-7--5--7--5--7--5--3----7--5--7--5--7--5--3----|
B|-----------------------------------------------|
G|-----------------------------------------------|
D|-----------------------------------------------|
A|-----------------------------------------------|
E|-----------------------------------------------|



Guitar 2
Intro

e|-7---3---10---12-10-7-10--|
B|--------------------------|
G|--------------------------|
D|--------------------------|
A|--------------------------|
E|--------------------------|

Verse

e|-7---3---10/12---7-5-3-5--7---10---12-10-7----3--5--|
B|----------------------------------------------------|
G|----------------------------------------------------|
D|----------------------------------------------------|
A|----------------------------------------------------|
E|----------------------------------------------------|

Chorus

e|-7---7---10-12-10-8--7---7-----------|
B|---8---8---------------8---8-10--12--|
G|-------------------------------------|
D|-------------------------------------|
A|-------------------------------------|
E|-------------------------------------|


Pre-Verse

e|-7----|
B|------|
G|------|
D|------|
A|------|
E|------|

Verse 2

e|-10/12---15-14-12-10--7---5-7-5-3--5--7-5-7-10-7-5-7-10-10/12-14-15-14-12-|
B|--------------------------------------------------------------------------|
G|--------------------------------------------------------------------------|
D|--------------------------------------------------------------------------|
A|--------------------------------------------------------------------------|
E|--------------------------------------------------------------------------|

Verse 2 (Overdubbed Guitar. Played with Guitar 2)

e|-------------------------------------------15-14-12-10-12-10-5-7-5-7-5--7-|
B|--------------------------------------------------------------------------|
G|--------------------------------------------------------------------------|
D|--------------------------------------------------------------------------|
A|--------------------------------------------------------------------------|
E|--------------------------------------------------------------------------|

Intro 2

e|-7---10/12-7---15--14--12--10--7-10-12-14-15--14--|
B|--------------------------------------------------|
G|--------------------------------------------------|
D|--------------------------------------------------|
A|--------------------------------------------------|
E|--------------------------------------------------|

Verse 3 (When band comes back in play chorus riff)

e|-5----|
B|------|
G|------|
D|------|
A|------|
E|------|

Final Chorus

e|-7---7---10-12-10-8--7---7----------------|
B|---8---8---------------8---8-10--12-------|
G|------------------------------------------|
D|------------------------------------------|
A|------------------------------------------|
E|------------------------------------------|

e|-7---7---10-12-10-8--7---7-----------7----10-12-10-8-15--14--12--10--7--15|
B|---8---8---------------8---8-10--12---------------------------------------|
G|--------------------------------------------------------------------------|
D|--------------------------------------------------------------------------|
A|--------------------------------------------------------------------------|
E|--------------------------------------------------------------------------|

Structure

Guitar 1
Intro        X1
Verse        X1
Chorus       X1
Pre-Verse    X1
Verse        X1
Intro        X1
Verse*       X1
Final Chorus X1

*Only play second half of Verse

Guitar 2
Intro        X1
Verse        X1
Chorus       X2
Pre-Verse    X1
Verse 2      X1
Chorus       X2
Intro 2      X2
Verse 3      X1
Final Chorus X1

And that should be it. I hope it's not too confusing. I only tabbed the lead
 guitars so if you want the chords then go check out CadetPD's tab.
Suggest correction
What's this?
You can suggest a correction to this tab. Community and Mods will review your correction and vote to approve or reject it.
comments
We did not receive enough feedback on this tab! Please rate:
print report bad tab
1 2 3 4 5
guest
You may want to rate the tab now too:
select rating
Please do not post tabs as comments. Select "correction" instead!