Oops, an error
Loading. Please wait.

Jesus Saves chords

version 2
version 2

Whole song

328 views 1 this week
no commentswrite comment
1 2 3 4 5
2 more votes to show rating
add to favorites
×
Save as Personal and add changes to this tab that will be seen only by you. Learn more ›
×
You can save this tab as Personal to edit and correct it or add notes. All changes will be seen only by you. Learn more »
launch autoscroll
font size
0
reset
transpose
0
reset
display chords
guitar tuner
edit
Autoscroll
slow
fast
+/-
esc
set tempo
stop
Author
Difficulty
Strumming
There is no strumming pattern for this song yet. and get +5 IQ
[Intro]

E|-3-5-8-7-10-8-7-5-|-3-5-8-7-10-8-7-5-3|
B|-3-5-8-7-10-8-7-5-|-3-5-8-7-10-8-7-5-3|
G|------------------|-------------------|x2
D|------------------|-------------------| 
A|------------------|-------------------|
E|------------------|-------------------|


[Verse 1]

G                                    D
There will come a day when our cells won't regenerate
    C                          G         D
and everyone you know will rot away, rot away
     G                       D
Your friends and enemies and all your family
C                            G              D
We will all be buried in the ground, in the ground
   Em               G
So make the most of it.
      C                   D
Cause life's too short to fuck with.


[Interlude Riff]

E|-3-5-8-7-10-8-7-5-3-5-8-7-10-8-7-5-3|
B|-3-5-8-7-10-8-7-5-3-5-8-7-10-8-7-5-3|
G|------------------------------------|
D|------------------------------------| x2
A|------------------------------------|
E|------------------------------------|


[Verse 2]

G                    D
Once an hour a day I get very sad
C                    G     D
Once an hour a day I get depressed
G                        D
When that hour is over I start to feel okay
      C                      G         D
cause I am reminded I'll rot away, rot away.
Em                G       C                 D
I don't have much time to hang out here and cry
    Em                   G      C               D
and though that may feel nice I can't do that every day


[Interlude Riff]

E|-3-5-8-7-10-8-7-5-3-5-8-7-10-8-7-5-3|
B|-3-5-8-7-10-8-7-5-3-5-8-7-10-8-7-5-3|
G|------------------------------------| x2
D|------------------------------------| 
A|------------------------------------|
E|------------------------------------|


[Verse 3]

     G                                 D
I've had a lot of friends and they've done a lot of drugs
          C                         G         D
and those drugs made my friends rot away, rot away
     G                        D
They say that Jesus saves but Jesus doesn't care
        C                      G           D
because he is in a grave, in a grave, in a grave
      Em         G         C                         
Let's be our own God, take care of
                  D
ourselves and the ones that we love


[Outro]

E|-3-5-8-7-10-8-7-5-3-5-8-7-10-8-7-5-3|
B|-3-5-8-7-10-8-7-5-3-5-8-7-10-8-7-5-3|
G|------------------------------------|
D|------------------------------------| x2
A|------------------------------------|
E|------------------------------------|

            
            
Suggest correction
Creating personal tab
Creating personal tab
You can edit any tab online and save it as your Personal.

You can edit, replace or remove any tab part or add personal notes – all changes will be seen only by you.

Personal tabs can be accessed anytime from any device, even offline.
Learn more »
Give kudos to tab author, rate the tab!
1 2 3 4 5
comments
print report bad tab
guest
You may want to rate the tab now too:
select rating
Wanna post a correction for this tab? Suggest correction