Oops, an error
Loading. Please wait.

Oldey Timey Chords

version 2
version 2

Whole song

3,951 views 21 this week
1 commentread comment
1 2 3 4 5
excellent!
x 7
add to favorites
launch autoscroll
font size
0
reset
transpose
0
reset
simplify chords
display chords
guitar tuner
Autoscroll
slow
fast
+/-
esc
set tempo
stop
Help us to improve Ultimate-Guitar.com Take our survey!
×
There are a few chords I'm not certain the name of*, but the way they're tabbed is 
the way they're played.

Chords used:
         C
e|--------------|
B|--1-----------|
G|--------------|
D|--2-----------|
A|--3-----------|
E|--------------|
       A7
e|--------------|
B|---2----------|
G|--------------|
D|---2----------|
A|--------------|
E|--------------|
        D7
e|---2----------|
B|---1----------|
G|---2----------|
D|--------------|
A|--------------|
E|--------------|
       G
e|----3---------|
B|--------------|
G|--------------|
D|--------------|
A|----2---------|
E|----3---------|
        F
e|-----1--------|
B|-----1--------|
G|-----2--------|
D|-----3--------|
A|-----3--------|
E|-----1--------|
       F#*
e|-----1--------|
B|-----1--------|
G|-----2--------|
D|-----3--------|
A|-----3--------|
E|-----2--------|
       Em7*
e|--------------|
B|----1---------|
G|--------------|
D|--------------|
A|----2---------|
E|--------------|
        Am
e|--------------|
B|---1----------|
G|---2----------|
D|---2----------|
A|--------------|
E|--------------|


C      A7     D7     G
F   F#    C-Em7-Am
D7   G    C-F-C-G (x3)

C
C               A7
I've had a bad day
      D7              G
I am ashamed and I'm afraid
    F    F#         C    Em7 Am
And I am drained of what was named
D7   G  C-F-C-G   C-F-C
Self respect

C                                       A7
If the bridge that I was driving over collapsed while I was driving over it
D7                        G
That may not be such a bad thing
        F               F#             C        Em7      Am
I would finally meet my maker, I could meet the great creator
        D7             G                 C-F-C-G    C-F-C
And I'd punch him for teaching me how to sing
C                                  A7
And my body would be at the bottom of a lake in West Virginia
   D7                               G
Instead of the bottom of this bottle I drink
        F               F#             C      Em7       Am
I don't have a drinking problem, don't have a drinking solution
D7              G               C-F-C-G (x3)
I don't think I ever learned to think
    F      F#              C   Em7 Am  D7    G       C
And no one knows what it's like to be anybody but themselves
F  F#   C Em7 Am
No one, no one
D7  G  C-F-C-G (x3)     C
No one else
Suggest correction
comments
print report bad tab
1 comment total.
0 reply
2Stripez 10 wrote on June 30 2016, 04:17 pm

Sounds good overall, but I think that F# should be a G

guest
You may want to rate the tab now too:
select rating
Please do not post tabs as comments. Select "correction" instead!