Oops, an error
Loading. Please wait.

Angel Of Music Tab

version 1
version 1

Whole song

16,323 views 9 this week
10 commentsread comments
1 2 3 4 5
accurate
x 13
add to favorites
launch autoscroll
font size
0
reset
how to read this tab
guitar tuner
Autoscroll
slow
fast
+/-
esc
set tempo
stop
Help us to improve Ultimate-Guitar.com Take our survey!
×
Author
Tuning: standard

e|-0---------------------------------------------------------------------------|
B|-----3---1---3----0-----------3---0------------------------------------------|
G|--------------------------2----------------0---------------------------------|
D|-----------------------------------------------------------------------------|
A|-----------------------------------------------------------------------------|
E|-----------------------------------------------------------------------------|
    Where in the world have you been hiding
e|-0------------------------------------------------------------------------------|
B|-----3---1----3--------------1--------------------------------------------------|
G|--------------------------------------------------------------------------------|
D|------------------------2-------------------------------------------------------|
A|--------------------------------------------------------------------------------|
E|--------------------------------------------------------------------------------|
     Really you were perfect
e|-0---------------------------------------------------------------------------|
B|-----3---1---3----0-----------3---0------------------------------------------|
G|--------------------------2----------------0---------------------------------|
D|-----------------------------------------------------------------------------|
A|-----------------------------------------------------------------------------|
E|-----------------------------------------------------------------------------|
     I only wish I knew your secret
e|-0------------------------------------------------------------------------------|
B|-----3---1----3--------------1--------------------------------------------------|
G|--------------------------------------------------------------------------------|
D|------------------------2-------------------------------------------------------|
A|--------------------------------------------------------------------------------|
E|--------------------------------------------------------------------------------|
     Who is this new tutor?
e|--------------------------------------------------------------------------------|
B|-1--0---------------------------------------------------------------------------|
G|---------2---0-------------------2----------------------------------------------|
D|-------------------3---2---2----------------------------------------------------|
A|--------------------------------------------------------------------------------|
E|--------------------------------------------------------------------------------|
     Father once spoke of an angel
e|----------------------------------------------------------------------------------|
B|----------------------------------------------------------------------------------|
G|-2--0-----------------------------------------------------------------------------|
D|---------3----2---0-----2-2-------------------------------------------------------|
A|----------------------------------------------------------------------------------|
E|----------------------------------------------------------------------------------|
     I used to dream he'd appear
e|--------------------------------------------------------------------------------|
B|-1--0---------------------------------------------------------------------------|
G|---------2---0-------------------2----------------------------------------------|
D|-------------------3---2---2----------------------------------------------------|
A|--------------------------------------------------------------------------------|
E|--------------------------------------------------------------------------------|
     Here in this room I can sense him
e|-----------------0--------------------------------------------------------------|
B|------0----1--------------3-----------------------------------------------------|
G|--------------------------------------------------------------------------------|
D|--------------------------------------------------------------------------------|
A|--------------------------------------------------------------------------------|
E|--------------------------------------------------------------------------------|
     And I know he's here
Suggest correction
comments
print report bad tab
10 comments total. Showing first comments.
+1 reply
theeyeofsauron 10 wrote on August 8 2005, 12:00 am

on the second half of the beging, twice you have a D where it should be a G( on the were in really you were perfect and the new in who is this new tutor). i used to dream he'd appear should look like this:
e|----------------------------------------------------------------------------------|
B|----------------------------------------------------------------------------------|
G|-2--0-----------------------------------------------------------------------------|
D|---------3-3--2---0-------2-------------------------------------------------------|
A|----------------------------------------------------------------------------------|
E|----------------------------------------------------------------------------------|
I used to dream he'd appear
and on the last line, there should be another A before the B

0 reply
ashleybritt1234 10 wrote on August 1 2006, 05:20 pm

Sure I guess that this is a good tab. Sure.

+1 reply
bJoelFan13 226 wrote on November 29 2006, 05:11 pm

i like it better with a capo on 3

guest
You may want to rate the tab now too:
select rating
Please do not post tabs as comments. Select "correction" instead!