Oops, an error
Loading. Please wait.

Close Every Door Tab

3,509 views 3 this week
no commentswrite comment
1 2 3 4 5
x 5
add to favorites
launch autoscroll
font size
0
reset
how to read this tab
guitar tuner
Autoscroll
slow
fast
+/-
esc
set tempo
stop
Help us to improve Ultimate-Guitar.com Take our survey!
×
Difficulty
intermediate
Andrew Lloyd Webber
Close Every Door
Standard Tuning....

Hey so this is my first tab and i hope you all like it. it sound correct when played 
the CD so its up to you. if you like it let me know :)!!!

e|------3---0--|--2----------|------3---0--|--2----------|------0---3---|
B|--0----------|--1---1---0--|--0----------|------1---0--|--0-----------|
G|--0----------|--2----------|--0----------|--2----------|--0-----------|
D|--2----------|--1----------|--2----------|--1----------|--0-----------|
A|-------------|-------------|-------------|--2----------|--------------|
E|--0----------|-------------|-------------|-------------|--------------|

    1 & 2 & 3 &   1 & 2 & 3 &   1 & 2 & 3 &   1 & 2 & 3 &   1 & 2 & 3 &

e|--7---5---3---|--2---3---0---|-------------|
B|--------------|--1-----------|--7------4---|
G|--8-----------|--2-----------|--9----------|
D|--------------|--------------|--7----------|
A|--------------|--0-----------|-------------|
E|--7-----------|--------------|--7----------|

    1 & 2 & 3 &    1 & 2 & 3 &    1 & 2 & 3 &

e|------3---0--|--2----------|------3---0--|--2----------|------0---3---|
B|--0----------|--1---1---0--|--0----------|------1---0--|--0-----------|
G|--0----------|--2----------|--0----------|--2----------|--0-----------|
D|--2----------|--1----------|--2----------|--1----------|--0-----------|
A|-------------|-------------|-------------|--2----------|--------------|
E|--0----------|-------------|-------------|-------------|--------------|

    1 & 2 & 3 &   1 & 2 & 3 &   1 & 2 & 3 &   1 & 2 & 3 &   1 & 2 & 3 &

e|--7---5---3---|--2---3---0---|--7------------|
B|--------------|--1-----------|--7-------0-0--|
G|--8-----------|--2-----------|--8------------|
D|--------------|--------------|---------------|
A|--------------|--0-----------|---------------|
E|--7-----------|--------------|--7------------|

    1 & 2 & 3 &    1 & 2 & 3 &    1 & 2 & 3 &

e|--------------|--0----------|--------------|-------------|--------------|
B|--0---1---3---|----1--------|------0---1---|--3-0--------|--------------|
G|--0-----------|------2---2--|--2-----------|--0---0----0-|--2---0---2---|
D|--------------|-------------|--0-----------|--0----------|--------------|
A|--------------|--3----------|--------------|-------------|--------------|
E|--3-----------|-------------|--2-----------|--3-------3--|--1-----------|

    1 & 2 & 3 &    1 & 2 & 3 &   1 & 2 & 3 &    1 & 2 & 3 &   1 & 2 & 3 &

e|--------------|--------------|-------------|
B|--0-----------|--------------|--0----------|
G|--0---0-------|--0-----------|----------2--|
D|----------2---|--2---4---2---|--1----------|
A|--------------|--3-----------|--2----------|
E|--0-----------|--------------|-------------|

    1 & 2 & 3 &    1 & 2 & 3 &    1 & 2 & 3 &

e|----0-2-3-2-0-|--2-----------|----0-2-3-2-0-|--2-----------|----0-2-3-2-0-|
B|--0-----------|--1-1---1-----|--0-----------|----1---1-----|--0-----------|
G|--0-----------|--2---2-----2-|--0-----------|--2---2-----2-|--0-----------|
D|--2-----------|--1-------0---|--2-----------|--1-------0---|--0-----------|
A|--------------|--------------|--------------|--2-----------|--------------|
E|--0-----------|--------------|--------------|--------------|--------------|

    1 & 2 & 3 &    1 & 2 & 3 &    1 & 2 & 3 &    1 & 2 & 3 &    1 & 2 & 3 &

e|--7---5---3---|--2---3---0---|--7-----------|
B|--------------|--1-----------|--7-------0-0-|
G|--8-----------|--2-----------|--8-----------|
D|--------------|--------------|--------------|
A|--------------|--0-----------|--------------|
E|--7-----------|--------------|--7-----------|

    1 & 2 & 3 &    1 & 2 & 3 &    1 & 2 & 3 &

e|-------------|--0-----------|-------------|----------3--|
B|--0---1---3--|--1-------1-0-|------0---1--|--3----------|
G|--0----------|--0-----------|--2----------|--0----------|
D|-------------|--------------|-------------|-------------|
A|-------------|--3-----------|----------0--|--2----------|
E|--3----------|----------3---|--2---3------|-------------|

    1 & 2 & 3 &   1 & 2 & 3 &    1 & 2 & 3 &   1 & 2 & 3 &

e|--5---3---5--|-7-3-0--------|----3-0------|--0----------||
B|--4----------|-----0-----0--|--1-------4--|--0----------||
G|-------------|-----0--------|--0---3---2--|--0----------||
D|-------------|-----2--------|-------------|-------------||
A|--3----------|--------------|--3-------2--|-------------||
E|-------------|-0-------0----|-------------|--0----------||

    1 & 2 & 3 &  1 & 2 & 3 &     1 & 2 & 3 &   1 & 2 & 3 &
Suggest correction
comments
print report bad tab
guest
You may want to rate the tab now too:
select rating
Wanna post a correction for this tab? Suggest correction