Oops, an error
Loading. Please wait.

Heaven On Their Minds Bass Tab

version 1
version 1

Whole song

Interactive

1,367,580 views 15 this week
4 commentsread comments
1 2 3 4 5
excellent!
x 5
add to favorites
launch autoscroll
font size
0
reset
guitar tuner
Autoscroll
slow
fast
+/-
esc
set tempo
stop
Help us to improve Ultimate-Guitar.com Take our survey!
×
Artist: Andrew Lloyd Webber / Tim Rice
Song: Heaven On Their Minds
Album: Jesus Christ Superstar - Original Motion Picture Soundtrack, 1973
tabbed by: Julian Wathen / email: julianwathen@hotmail.com
http://www.basstabarchive.com/

4/4
G||----7---8--5--7-|----7---8--5--7-|----7---8--5--7-||
D||----------------|----------------|----------------||
A||5-5----5--5--5--|5-5----5--5--5--|5-5----5--5--5--||
E||----------------|----------------|----------------||

    Dm               F                G
{G||----7---8--5--7-|----7---8--5--7-|----7---8--5--7-||
{D||----------------|----------------|----------------||
{A||5-5----5--5--5--|5-5----5--5--5--|5-5----5--5--5--||
{E||----------------|----------------|----------------||

   F                G                Dm
G||----7---8--5--7-|----7---8--5--7-|----7---8--5--7-||
D||----------------|----------------|----------------||
A||5-5----5--5--5--|5-5----5--5--5--|5-5----5--5--5--||
E||----------------|----------------|----------------||

                                                        x4
G||----7---8--5--7-|----7---8--5--7-|----7---8--5--7-||}
D||----------------|----------------|----------------||}
A||5-5----5--5--5--|5-5----5--5--5--|5-5----5--5--5--||}
E||----------------|----------------|----------------||}


1:10
   Dm               F                Dm
G||----------------|----------------|----------------|
D||------------7---|----------------|----------------|
A||5-5----55-8---5-|8-8------5-8----|5-5----5--3-5---|
E||----------------|-------88-----8-|---------5----5-|

  G                Bb               C
G|----------------|----------------|----------------|
D|------------5---|----------------|----------------|
A|----------5---5-|1-1----1-----1--|3-3----3--1-3-1-|
E|3-3-----33------|--------1-3---3-|--------3-------|

   F                A                Dm
G||----------------|----------------|----------------|
D||----------------|----------------|----------------|
A||----------------|0-0-----------34|5-5----5--3-5-3-|
E||1-1-------------|----------------|--------5-------|

   Bb               F                F
G||----------------|----------------|----------------|
D||----------------|--------------3-|3-3----3-1------|
A||1-1-----1-----1-|----------1-3--3|-----------3-1--|
E||----------1-3---|1-1----14-------|----------------|

   D /A             A+ A  Bb         Dm7
G||----------------|----------------|----------------||
D||----------------|----------------|----------------|
A||5-5-------------|1-------1---1---|5---5---------3-|
E||----5-5---------|----------------|------------5---||

   Dm               F                Dm               G
G||----------------|----------------|----------------|----------------|
D||----------------|----------------|----------------|------------5---|
A||5-5-3-5-------3-|---------5-8----|5-5----5--3-5---|----------5---5-|
E||----------------|111----88-----8-|---------5----5-|3-3-----33------|


  Bb               C                F
G|----------------|----------------|----------------|
D|----------------|----------------|----------------|
A|1-1----1-----1--|3-3----3--1-3-1-|----------------|
E|--------1-3---3-|--------3-------|1-1-------------|

   A                Dm               Bb               F
G||----------------|----------------|----------------|----------------||
D||----------------|----------------|----------------|--------------3-||
A||0-0-----------34|5-5----5--3-5-3-|1-1-----1-----1-|----------1-3--3||
E||----------------|--------5-------|----------1-3---|1-1----14-------||

    F               D/A              A+ A  Bb         Dm7
G||----------------|----------------|----------------|----------------|
D||3-3----3-1------|----------------|----------------|----------------|
A||-----------3-1--|5-5-------------|1-------1---1---|5---5---------3-|
E||----------------|----5-5---------|----------------|------------5---|

   Bb      F      Gm    Dm       Gm    Dm/A     A      Dm
G||--------------|--------------|--------------|--------------||
D||--------3----3|5---5---------|5---5---------|--------------||
A||1---1---------|--------5-----|--------------|--------5-----||
E||--------------|--------------|--------5-----|5---5---------||

Bb      F        Gm    Dm       Gm    Dm/A     A      Dm
G||--------------|--------------|--------------|--------------||
D||--------3----3|5---5---------|5---5---------|--------------||
A||1---1---------|--------5-----|--------------|--------5-----||
E||--------------|--------------|--------5-----|5---5---------||

2:22 Listen Jesus do you care...?
   Dm               F                Dm               G
G||----------------|----------------|----------------|----------------|
D||------------7---|-----------3----|----------------|------------5---|
A||5-5-3-5-------3-|-------335----3-|5-5----5--3-5---|----------5---5-|
E||----------------|111-------------|---------5----5-|3-3-----33------|

  Bb               C                F
G|----------------|----------------|----------------|
D|----------------|----------------|----------------|
A|1-1----1-----1--|3-3----3--1-3-1-|----------------|
E|--------1-3---3-|--------3-------|1-1-------------|

   A                Dm               Bb               F
G||-2-00-----------|----------------|----------------|----------------||
D||------3-22------|----------------|----------------|--------------3-||
A||0-0--------5--34|5-5----5--3-5-3-|1-1-----1-----1-|----------1-3--3||
E||----------------|--------5-------|----------1-3---|1-1----14-------||


    F               D /A             A+ A  Bb         Dm7
G||----------------|----------------|----------------|----------------|
D||3-3----3-1------|---67-7---------|----------------|----------------|
A||-----------3-1--|5-5-------------|1-------1---1---|5---5---------3-|
E||----------------|----------------|----------------|------------5---|

  Bb               Dm
G|----------------|----------------|
D|----------------|----------------|
A|1-------1---1---|5---5-----------|
E|----------------|----------------|

   Bb      F      Gm    Dm       Gm    Dm/A     A      Dm
G||--------------|--------------|--------------|--------------||
D||--------3----3|5---5---------|5---5---------|--------------||
A||1---1---------|--------5-----|--------------|--------5-----||
E||--------------|--------------|--------5-----|5---5---------||

   Bb      F      Gm      Dm     Gm    Dm/A     A      Dm
G||--------------|--------------|--------------|--------------||
D||--------3----3|5---5---------|5---5---------|--------------||
A||1---1---------|--------5-----|--------------|--------5-----||
E||--------------|--------------|--------5-----|5---5---------||

3:07
   Dm               F                Dm               G
G||----------------|----------------|----------------|----------------|
D||----------------|----------------|----------------|------------5---|
A||5-5-3-5-------3-|--------8---7---|5-5----5--3-5---|----------5---5-|
E||----------------|111----8------8-|---------5----5-|3-3-----33------|

  Bb               C                F
G|----------------|----------------|----------------|
D|----------------|----------------|----------------|
A|1-1----1-----1--|3-3----3--1-3-1-|----------------|
E|--------1-3---3-|--------3-------|1-1-------------|

   A                Dm               Bb               F
G||----------------|----------------|----------------|----------------|
D||----------------|----------------|----------------|--------------3-|
A||0-0-----------34|5-5----5--3-5-3-|1-1-----1-----1-|----------1-3--3|
E||----------------|--------5-------|----------1-3---|1-1----14-------|

   F                D/A              A+ A  Bb         Dm7
G||----------------|----------------|----------------|----------------|
D||3-3----3-1------|----------------|----------------|----------------|
A||-----------3-1--|5-5-------------|1-------1---1---|5---5-----------|
E||----------------|----5-5---------|----------------|----------------|


  Bb               Dm
G|----------------|----------------|
D|----------------|----------------|
A|1-------1---1---|5---5-----------|
E|----------------|----------------|

3:39
   Bb               Dm               Bb               Dm
G||-------33-------|----------7-----|----------------|----------------|
D||---33------3--0-|-------------7--|----------------|----------------|
A||1--------------1|5------55-------|1------11---11-3|5--55--55--55--5|
E||----------------|---55-----------|---11-----------|----------------|

   Bb               Dm               Bb               Dm
G||----------------|--7-------------|----------------|--7-------------|
D||----------------|------7---------|----------------|----7-----------|
A||1------11---11-3|5-------8-5-----|1------11---11-3|5-------8-5-----|
E||---11-----------|--------------8-|---11-----------|--------------8-|

   Bb               Dm               Bb               Dm
G||----------------|--7-------------|----------------|----------------|
D||----------------|------7---------|----------------|----7-----------|
A||1------11---11-3|5-------8-5-----|1------11---11-3|5-8---8-5---5---|
E||---11-----------|--------------8-|---11-----------|----------5---8-|

   Bb               Dm               Bb               Dm
G||----------------|----------------|----------------|-7-77--7-77-----||
D||----------------|----7-----------|----------------|----------------||
A||1------11---11-3|5-8---8-5---5---|1------11---11-3|5-----5---------||
E||---11-----------|----------5---8-|--11------------|----------------||
Fade......

I love this song, and this, to my mind, is the best version.  Great 70s
pentatonic line.  I tabbed this about two years ago, and I figure it's
time to share it.
Suggest correction
comments
print report bad tab
4 comments total. Showing first comments.
0 reply
KileManA7X 130 wrote on August 21 2006, 07:24 pm

This is really hard but sounds right.

0 reply
chckndmplngs 504 wrote on June 13 2007, 02:06 am

Excellent tab but I think it's easier if you play an open D string instead of 5th fret on A

0 reply
Kallegubben 159 wrote on November 22 2007, 09:29 am

It's awesome!

guest
You may want to rate the tab now too:
select rating
Wanna post a correction for this tab? Suggest correction