Oops, an error
Loading. Please wait.

Heaven On Their Minds Tab

version 3
version 3

Whole song

Interactive

3,154 views 12 this week
no commentswrite comment
1 2 3 4 5
1 last vote to show rating
add to favorites
launch autoscroll
font size
0
reset
how to read this tab
guitar tuner
Autoscroll
slow
fast
+/-
esc
set tempo
stop
Help us to improve Ultimate-Guitar.com Take our survey!
×
Author
intro
e]-------------------------------------------------|    x8
b]-------------------------------------------------|
g]-----7-8-5-7-----7-8-5-7-----7-8-5-7-----7-8-5-7-|
d]-0-0---------0-0---------0-0---------0-0---------|
a]-------------------------------------------------|
E]-------------------------------------------------|

"listen jesus
i dont like
what i see"

riff 1
e]----------------------------|   x4
b]----------------------------|
g]------------------------5---|
d]-7----7-1----3-5----3-5-5-7-|
a]-7----7-3----3-5----3-5-3-7-|
E]-5----5-1----1-3----1-3---5-|

"nazareth's most famous son
should have stayed a great
unknown"

riff 2
e]-----------------------------------------------|   x2
b]-----------------------------------------------|
g]-7777-5555-7777-3333-7777-5555-----------------|
d]-7777-5555-7777-3333-7777-5555----------3~-----|
a]-5555-3333-5555-1111-5555-3333--3-5-6-3--------|
E]-----------------------------------------------|
  |----------------------------------------------|
                pm

(riff 1)

solo
e]------------------------------------------------------------|   x2
b]-15^15^-15-12----13^-13-13-10----12^12^-12-9------------10~-|
g]--------------12--------------11-------------10--9-10-11----|
d]------------------------------------------------------------|
a]------------------------------------------------------------|
E]------------------------------------------------------------|

bridge
e]-------------------|
b]-------------------|
g]-------------------|
d]-777778--7777810---|
a]-777778--7777810---|
E]-555556--555568----|
  |------------------|
        pm

outro
e]------------|   x4
b]------------|
g]------------|
d]-7--3--5--3-|
a]-7--3--5--3-|
E]-5--1--3--1-|
Suggest correction
Give kudos to tab author, rate the tab!
1 2 3 4 5
comments
print report bad tab
guest
You may want to rate the tab now too:
select rating
Wanna post a correction for this tab? Suggest correction