Oops, an error
Loading. Please wait.

Overture Tab

version 1
version 1

Whole song

Interactive

5,333 views 1 this week
2 commentsread comments
1 2 3 4 5
accurate
x 4
add to favorites
launch autoscroll
font size
0
reset
how to read this tab
guitar tuner
Autoscroll
slow
fast
+/-
esc
set tempo
stop
Help us to improve Ultimate-Guitar.com Take our survey!
×
Song:Overture
Artist:Andrew Lloyd Webber

e---------------------------------------------------------|
B---------------------------------------------------------|
G---------------------------------------------------------|
D--7-------7-6-5-4-3------3-4-5-6-7------7-6-5-4-3--------|
A--5-------5-4-3-2-1------1-2-3-4-5------5-4-3-2-1--------|       repeat pattern
E---------------------------------------------------------|


e------------------------------------------------|
B------------------------------------------------|
G------------------------------------------------|
D------------------------------------------------|
A----3--0----------0-----------------------------|      x2
E--2--2---3-3----0---0-2-------------------------|


e------------------------------------------------------------|
B------------------------------------------------------------|
G-------------------2---------4----4-3-2-1-0-----------------|
D------0--4-2-2---2---2-4---4----------------2-2-------------|
A----2---------------------------------------------3-3---2-2-|
E--2---------------------------------------------------------|


e------------------------------------------------|
B----3--1---------1------------------------------|
G--2--2---3-3---0---0-2--------------------------|
D------------------------------------------------|
A------------------------------------------------|     X2
E------------------------------------------------|


e------1-5--3-3---3-8--3-5---5-10--10-9-8-7-6-3-3-----------|
B----3---------------------------------------------2-2--1-1-|
G--2--------------------------------------------------------|
D-----------------------------------------------------------|
A-----------------------------------------------------------|
E-----------------------------------------------------------|

e------------------------------------------------|
B------------------------------------------------|
G-------0-0-----------5--------------------------|
D--3--------3-3--3-3-----------------------------|
A------------------------------------------------|    x2
E------------------------------------------------|


e------------------------------------------------|
B------------------------------------------------|
G------------------------------------------------|
D--7-----7-6-5-4-3--2-3---3-4-5-6-7--5-7---------|
A--5-----5-4-3-2-1--0-1---1-2-3-4-5--3-5---------| repeat pattern
E------------------------------------------------|


And thats basically the whole song. I got these tabs from playing it by ear, so it 
be accurate. Enjoy!
Suggest correction
What's this?
You can suggest a correction to this tab. Community and Mods will review your correction and vote to approve or reject it.
comments
print report bad tab
2 comments total.
0 reply
sherry07 354 wrote on February 9 2010, 07:58 am

maybe i'm not tuned right..... this dosent sound good with the soundtrack. its fine on its own, though

0 reply
demonicchazza97 13 wrote on April 22 2013, 04:31 pm

a few notes aren't right but its not bad

guest
You may want to rate the tab now too:
select rating
Please do not post tabs as comments. Select "correction" instead!