Oops, an error
Loading. Please wait.

Phantom Of The Opera Tab

version 3
version 3

Whole song

Interactive

17,751 views 1 this week
3 commentsread comments
1 2 3 4 5
x 3
add to favorites
launch autoscroll
font size
0
reset
how to read this tab
guitar tuner
Autoscroll
slow
fast
+/-
esc
set tempo
stop
Help us to improve Ultimate-Guitar.com Take our survey!
×
Author
Difficulty
intermediate
E ----------------------------------------------|
B ----------------------------------------------|
G ----------------------------------------------|
D ---12------10--8--8--------10----------7------|
A 12-----12--10-----9---10--------10-----8------|
E 13-13------10-----10--------7----------10-----|
     ^
in sleep he sang to me....

E-------------5--3---3---3--8-3--5--5--10-8-6--------------------------|
B--------6----3------3------5----6--6--10------10--8-------------------|
G----7--------3------3------5----7--7--10--------------10--9-7-6-------|
D-7------------------------------------------------------------5-------|
A--------------------------------------------------------------7-------|
E----------------------------------------------------------------------|
  ^
and do i dream again...

E----------------------------------|
B-0--0-----------------------------|
G-0--0-----2--7--------------------|
D-2--1--------7--------------------|
A-------------8--------------------|
E----------------------------------|
   ^
inside my mind
Suggest correction
Give kudos to tab author, rate the tab!
1 2 3 4 5
comments
print report bad tab
3 comments total.
0 reply
shark1586 31 Dec 17, 2006 04:59 PM

correction

E-------------------
B--0-0---------------
G--0-0--2---7----------
D--2-1------7---------
A-----------8-------
E------------------

inside my mind

0 reply
jstarbob 10 May 03, 2007 10:16 PM

I love this tab, it sounds more 'full' then others ive seen.. good job =)

0 reply
Hyrulian 10 May 25, 2007 09:24 PM

coolio
keep up the good work!

guest
You may want to rate the tab now too:
select rating
Wanna post a correction for this tab? Suggest correction