Oops, an error
Loading. Please wait.

Phantom Of The Opera Tab

version 5
version 5

Whole song

  • Tabbed based off of this: http://www.youtube.com/watch?v=44I6pbyEwz4.
  • This is the full performance by Nichole Scherzinge... Show more

Interactive

69,611 views 306 this week
2 commentsread comments
1 2 3 4 5
x 37
add to favorites
launch autoscroll
font size
0
reset
how to read this tab
guitar tuner
×
Best way to learn
"Phantom Of The Opera"
Autoscroll
slow
fast
+/-
esc
set tempo
stop
[Intro]
e|-5--5-4-3-2-1------5--5-4-3-2-1------1-2-3-4-5-----------------|
B|---------------------------------------------------------------|
G|---------------------------------------------------------------|
D|---------------------------------------------------------------|
A|---------------------------------------------------------------|
E|--------------(4-6)-------------(4-6)--------------------------|

[Verse 1]
e|-------------------------------------------1-5-3-3--3-8-3-5----|
B|---3--1-------1-------3--1-------1-------3---------------------|
G|-2--2--3-3--0--0-2--2--2--3-3--0--0-2--2-----------------------|
D|---------------------------------------------------------------|
A|---------------------------------------------------------------|
E|---------------------------------------------------------------|

[Chorus]
e|-5-10--8-6-5-3-1-0------------------10-9-8-7-6-(4-6)-7-6-5-4-3-|
B|-------------------3-2-----------------------------------------|
G|------------------------3-3-2-2--------------------------------|
D|---------------------------------------------------------------|
A|---------------------------------------------------------------|
E|---------------------------------------------------------------|

[Verse 2]
e|-------------------------------------------1-5-3-3--3-8-3-5----|
B|---3--1-------1-------3--1-------1-------3---------------------|
G|-2--2--3-3--0--0-2--2--2--3-3--0--0-2--2-----------------------|
D|---------------------------------------------------------------|
A|---------------------------------------------------------------|
E|---------------------------------------------------------------|

[Chorus]
e|-5-10--8-6-5-3-1-0------------------10-9-8-7-6-(4-6)-7-6-5-4-3-|
B|-------------------3-2-----------------------------------------|
G|------------------------3-3-2-2--------------------------------|
D|---------------------------------------------------------------|
A|---------------------------------------------------------------|
E|---------------------------------------------------------------|

[Verse 3]
e|-------------------------------------------3-7-5-5--5-10-5-7---|
B|---5--3-------3-------5--3-------3-------5---------------------|
G|-4--4--5-5--2--2-4--4--4--5-5--2--2-4--4-----------------------|
D|---------------------------------------------------------------|
A|---------------------------------------------------------------|
E|---------------------------------------------------------------|

[Chorus]
e|-7-12--10-8-7-5-3-2--------------------------------------------|
B|-------------------5-4-----------------------------------------|
G|------------------------5-5-4-4--------------------------------|
D|---------------------------------------------------------------|
A|---------------------------------------------------------------|
E|---------------------------------------------------------------|

[Bridge]
e|-12-12--14-14-12-12-12-12-19--12-12--14-14-12-12-12-12-19------|
B|---------------------------------------------------------------|
G|---------------------------------------------------------------|
D|---------------------------------------------------------------|
A|---------------------------------------------------------------|
E|---------------------------------------------------------------|

[Verse 4]
e|-------------------------------------------3-7-5-5--5-10-5-7---|
B|---5--3-------3-------5--3-------3-------5---------------------|
G|-4--4--5-5--2--2-4--4--4--5-5--2--2-4--4-----------------------|
D|---------------------------------------------------------------|
A|---------------------------------------------------------------|
E|---------------------------------------------------------------|

[Chorus]
e|-7-12--10-8-7-5-3-2--------------------------------------------|
B|-------------------5-4-----------------------------------------|
G|------------------------5-5-4-4--------------------------------|
D|---------------------------------------------------------------|
A|---------------------------------------------------------------|
E|---------------------------------------------------------------|

[Outro]
e|-13-13--15-15-13-13-13-13-20--16--15-16-15-13-15-13-11-13-16--|
B|------------------------------------|--|----------------------|
G|--------------------------------------------------------------|
D|--------------------------------------------------------------|
A|--------------------------------------------------------------|
E|--------------------------------------------------------------|

e|-18--17-18-17-15-17-15-13-15-18--18--17-18-17-15-17-15-13-15-18-|
B|-------|--|----------------------------|--|---------------------|
G|----------------------------------------------------------------|
D|----------------------------------------------------------------|
A|----------------------------------------------------------------|
E|----------------------------------------------------------------|

e|-20--19-20-19-17-19-17-15-17-20--20--20--20--24----------------|
B|-------|--|----------------------------------------------------|
G|---------------------------------------------------------------|
D|---------------------------------------------------------------|
A|---------------------------------------------------------------|
E|---------------------------------------------------------------|



************************************

| () - Ghost note

************************************
Suggest correction
comments
print report bad tab
2 comments total.
+1 reply
Emo JesusFreak 66 Mar 17, 2009 10:50 AM

The phantom of the opera chorus can also be played (easier and faster):
CHORUS

e-5-10--8-6--------------------------10-9-8-7-6-(4-6)-7-6-5-4-3-
B-----------10-8-6----------------------------------------------
G------------------9-7-6----------------------------------------
D------------------------6-6-7-7--------------------------------
A---------------------------------------------------------------
E---------------------------------------------------------------

+1 reply
th_brck_rcks 456 May 01, 2010 06:35 PM

This tab is badass!!! :D

guest
You may want to rate the tab now too:
select rating
Wanna post a correction for this tab? Suggest correction