Oops, an error
Loading. Please wait.

Phantom Of The Opera tab

version 6
version 6

Whole song

  • Tabbed based off of this: http://www.youtube.com/watch?v=44I6pbyEwz4.
  • This is the full performance by Nichole Scherzinge... Show more

Interactive

181 views 9 this week
no commentswrite comment
1 2 3 4 5
3 more votes to show rating
add to favorites
×
Save as Personal and add changes to this tab that will be seen only by you. Learn more ›
×
You can save this tab as Personal to edit and correct it or add notes. All changes will be seen only by you. Learn more »
launch autoscroll
font size
0
reset
how to read this tab
guitar tuner
edit
Autoscroll
slow
fast
+/-
esc
set tempo
stop
Author
Difficulty
About this tab version
This is the full performance by Nichole Scherzinger and the phantoms in royal variety. Features full chords and some fills used in the song. Was this info helpful? Yes No
Phantom of the Opera - Andrew Lloyd Webber, 1986
As performed by Nicole Scherzinger, Simon Bowman, Earl Carpenter, John Owen-Jones and Ramin Karimloo
in 2011 in Royal Variety Performance

The composition features a lot of modulation. It starts in D minor and ends 
through various key changes in A minor. 
Listen to the performance https://www.youtube.com/watch?v=tE6SRBnDHx8 to get the correct feel and dynamic. 
Some verses can be played picking the chords mellowly while other parts sound best when strummed loudly. 

[Intro]
e|-5--------------|----------------|-1--------------|----------------|-5--------------|
B|-6--------------|----------------|-3--------------|----------------|-6--------------|
G|-7--------------|----------------|-3--------------|----------------|-7--------------|
D|-7--------------|--------7-6-5-4-|-3--------------|--------3-4-5-6-|-7--------------|
A|-5--------------|--------5-4-3-2-|-1--------------|--------1-2-3-4-|-5--------------|
E|----------------|----------------|----------------|----------------|----------------|

e|----------------|-1--------------|----------------|-5--------------|
B|----------------|-3--------------|----------------|-6--------------|
G|----------------|-3--------------|----------------|-7--------------|
D|--------7-6-5-4-|-3--------------|-6-8----3-4-5-6-|-7--------------|
A|--------5-4-3-2-|-1--------------|-6-8----1-2-3-4-|-5--------------|
E|----------------|----------------|-4-6------------|----------------|

[Verse 1]
Dm              Bb
In sleep he sang to me
C                Dm
In dreams he came
                         Bb     
That voice which calls to me
C               Dm
And speaks my name
                 Bb
And do I dream again?
C         Dm    
For now I find
                            Edim
The Phantom of the Opera is there
            Dm
Inside my mind
                e|----------------|-1--------------|----------------|-3--------------|
                B|----------------|-3--------------|----------------|-3--------------|
                G|----------------|-3--------------|----------------|-3--------------|
                D|--------7-6-5-4-|-3--------------|-6-8----7-6-5-4-|-5--------------|
                A|--------5-4-3-2-|-1--------------|-6-8----5-4-3-2-|-5--------------|
                E|----------------|----------------|-4-6------------|-3--------------|

[Verse 2]
Gm              Cm
Sing once again with me
F               Gm
Our strange duet
                  Cm
My power over you
F              Gm       
Grows stronger yet
                Cm
And though you turn from me
F               Gm      
To glance behind
                        F#dim   
The Phantom of the Opera is there
            Gm
Inside your mind
                e|-------------------|-6--------------|-2------------|-0--------------|
                B|-------------------|-8--------------|-3------------|-0--------------|
                G|-------------------|-8--------------|-2------------|-0--------------|
                D|--------12-11-10-9-|-8--------------|-0------------|-2--------------|
                A|--------10-9--8--7-|-6--------------|--------------|-2--------------|
                E|-------------------|----------------|--------------|-0--------------|

[Verse 3]
Em                      Am      
Those who have seen your face
D              Em       
Draw back in fear
                 Am             
I am the mask you wear
D               Em
It's me they hear
                        Am
Your/my spirit and your/my voice
D             Em
In one combined
                        Dbdim
The Phantom of the Opera is there
                Em
Inside your/my mind

  Em
He's there
                        C
The Phantom of the Opera
  Em
Beware
                        C       
The Phantom of the Opera                             [Bridge]                     In  all your
                        e|---------0-0-0-0-0-0-0-0-|-2-2-2----------------|-2-2-2---------------|
                        B|---------1-1-1-1-1-1-1-1-|-2-2-2----------------|-2-2-2------7--------|
                        G|---------0-0-0-0-0-0-0-0-|-2-2-2--6---4---------|-2-2-2--6-------6----|
                        D|---------2-2-2-2-2-2-2-2-|-4-4-4----4---4--7--2-|-4-4-4----4---4---4--|
                        A|---------3-3-3-3-3-3-3-3-|-4-4-4--------------2-|-4-4-4---------------|
                        E|-------------------------|-2-2-2--------------0-|-2-2-2---------------|

[Verse 4]
D
fantasies
E             Fm
You always knew
                D       
That man and mystery
E              Fm       
Were both in you
                D       
And in this labyrinth
E               Fm
Where night is blind
                        Fdim
The Phantom of the Opera is there
                Fm      
Inside your/my mind 
D               
Sing, my angel of music
Fm                             D                                                                
He's there, the Phantom of the Opera

Fm                              D
Ahh...                          Sing for me

Gm                              Eb      
Ahh...                          Sing for me

Gm                              Eb      
Ahh...                          Sing for me

Am                              F       
Ahh...                                                          

Am                              F       
Ahh...                          Sing for me

Am                              Am
Ahh...                          Sing for me

Am
Ahh...




            
            
Suggest correction
Creating personal tab
Creating personal tab
You can edit any tab online and save it as your Personal.

You can edit, replace or remove any tab part or add personal notes – all changes will be seen only by you.

Personal tabs can be accessed anytime from any device, even offline.
Learn more »
Give kudos to tab author, rate the tab!
1 2 3 4 5
comments
print report bad tab
guest
You may want to rate the tab now too:
select rating
Wanna post a correction for this tab? Suggest correction