Oops, an error
Loading. Please wait.

Let It Roll Tab

281 views 1 this week
no commentswrite comment
1 2 3 4 5
3 more votes to show rating
add to favorites
launch autoscroll
font size
0
reset
how to read this tab
guitar tuner
Autoscroll
slow
fast
+/-
esc
set tempo
stop
Help us to improve Ultimate-Guitar.com Take our survey!
×
Let It Roll  
Andrew Morris - Album : Valleys..
cmaca10@hotmail.com for suggestions..


Standard Tuning No Capo..on Electric guitar is awesome.


Intro Main Riff:
E-|------------------|
B-|------7br7-5------|
G-|------7br7-5------|
D-|-7-7---------5h7--|
A-|-0-0--------------|
E-|------------------|
    xxx

Pre Chorus:
E-|----------------------|
B-|-------3--------------|
G-|-------2--------------|
D-|-3--2--0-----------2--|
A-|-3--2-----0-3p0-3--0--|
E-|-1--0-----------------|

Chorus:
E-|-0--0-0--3--3-3--0--0-0--3--3-3-|-----------0------|-0--0-0--3--3-3--0--0-0--3--3-3-|
B-|-3--3-3--3--3-3--3--3-3--3--3-3-|------------------|-3--3-3--3--3-3--3--3-3--3--3-3-|
G-|-2--2-2--2--2-2--2--2-2--2--2-2-|-2--2--0h2----2---|-2--2-2--2--2-2--2--2-2--2--2-2-|
D-|-0--0-0--0--0-0--0--0-0--0--0-0-|-2--2---------2---|-0--0-0--0--0-0--0--0-0--0--0-0-|
A-|--------------------------------|-0--0---------0---|--------------------------------|
E-|--------------------------------|------------------|--------------------------------|

Na Na Na Na RIFF:
E-|-----------------|-----------------|----------------|----------------------|
B-|----7-7p5p0-5--7-|----7-7p5p0-5----|---7-7p5p0-5--7-|-------3--------------|
G-|----7-7p5p0-5--7-|----7-7p5p0-5--7-|---7-7p5p0-5--7-|-------2--------------|
D-|-7---------------|-7-------------7-|-7--------------|-3--2--0-----------2--|
A-|-0---------------|-0---------------|-0--------------|-3--2-----0-3p0-3--0--|
E-|-----------------|-----------------|----------------|-1--0-----------------|





Let It Roll..

Im a man child fully grown
Family ‘ve earned a life I live alone
Marlon Brando Muscles shown
His religion is one that cant be known

Let it roll let it roll
Let it open up my soul
Let it be free
Let it shine all the time
Let it open up my mind
Na na na na na na….

Let it roll let it roll
Let it open up my soul
Let it be free
Let it shine all the time
Let it open up my mind

Im a lightpole fully grown
Faulty circuit it seems it cant be solved
Corporate killer with china eyes
Acapooco that carries them lies

Im a mirror full of stone
Smoking aces like the generals on the phone
Marlon Brando Russle Crow
People listenin but they don’t wana know


Let it roll let it roll
Let it open up my soul
Let it be free
Let it shine all the time
Let it open up my mind
Na na na na na na



www.myspace.com/fansofandrewmorris
www.myspace.com/andrewmozmorris
www.andrewmorris.com.au
Suggest correction
Give kudos to tab author, rate the tab!
1 2 3 4 5
comments
print report bad tab
guest
You may want to rate the tab now too:
select rating
Wanna post a correction for this tab? Suggest correction