Oops, an error
Loading. Please wait.

Party Hard bass

version 5
version 5

Whole song

Interactive

5,298 views 3 this week
no commentswrite comment
1 2 3 4 5
2 more votes to show rating
add to favorites
×
Save as Personal and add changes to this tab that will be seen only by you. Learn more ›
×
You can save this tab as Personal to edit and correct it or add notes. All changes will be seen only by you. Learn more »
launch autoscroll
font size
0
reset
guitar tuner
edit
Autoscroll
slow
fast
+/-
esc
set tempo
stop
Author
Difficulty
-----------------------------------------------------------------------------
			     Party Hard - Andrew W.K.
-----------------------------------------------------------------------------
Tabbed By:  bassmasta20
Tuning:  EADG
The tab is in order.

Intro
 |-----play 2x-----|
G|--|  |--------|  |---------|  |--------|  |---------|  |-----------|
D|--|  |--------|  |---------|  |--------|  |---------|  |-----------|
A|-2|6x|-2x--22x|1x|---------|3x|667x-7~-|1x|---------|3x|9911x-7~-7\|1x
E|0-|  |0--0x---|  |00000x-0x|  |--------|  |00000x-0x|  |-----------|

Pre-Verse
G|-----------------------------------|
D|-----------------------------------|
A|------2x-000------------4x-2222/6-6|1x
E|00000--------4444-22222------------|

Pre-Verse Continued
G|------------------------------------|
D|------------------------------------|
A|------2x-000------------4x-22/6x-7~-|1x
E|00000--------4444-22222-------------|

Verse (play 1st part of Pre-Verse 2x)

Pre-Chorus 1
G|-----------------|-----------------|-----------------|------------------|
D|-----------------|-----------------|-----------------|------------------|
A|777-555----------|555---------7----|-----------------|------------6x7x--|1x
E|--------8-8-7-0~-|----888-7-7---0~-|888-777-5-5-7-0~-|555-7x7x7x7-----7x|

Pre-Chorus 2
G|------------------|----------------|------------------|
D|------------------|----------------|------------------|
A|------------------|-------------5--|------------------|
E|00000000-5-55\4/55|00000000-5-5---5|00000000-5-55\4/55|

Pre-Chorus 2 Continued
G|------------------|
D|------------2x-1/2|
A|----------2x------|1x
E|000000002x--------|

Chorus
G|------------------------------------|-----------------------------------|
D|------------------------------------|------------------------------2-1/2|
A|--00006/7--00006/7--00006/7--77776/7|--00006/7--00006/7--0000----2------|1x
E|0--------0--------0--------7--------|0--------0--------0-----002--------|

Repeat Inrto 1x Without 1st & 2nd Part

Repeat Pre-Verse 1x

Repeat Verse 2x

Pre-Chorus 3
G|-----------------|-----------------|-----------------|----------------|
D|-----------------|-----------------|-----------------|----------------|
A|777-555----------|555---------7----|-----------------|------------6x7x|1x
E|--------8-8-7-0~-|----888-7-7---0~-|888-777-5-5-7-0~-|555-7x7x7x7-----|

Repeat Pre-Chorus 2 1x

Chorus 2 (repeat Chorus 1 1x then play this 1x)
G|------------------------------------|------------------------------------|
D|------------------------------------|------------------------------2-----|
A|--00006/7--00006/7--00006/7--77776/7|--00006/7--00006/7--0000----2---2x--|
E|0--------0--------0--------7--------|0--------0--------0-----002-------0~|

| /  slide up
| \  slide down
| h  hammer-on
| p  pull-off
| ~  vibrato
| +  harmonic
| x  Mute note
| >  repeat many times
=============================================================================

            
            
Suggest correction
Creating personal tab
Creating personal tab
You can edit any tab online and save it as your Personal.

You can edit, replace or remove any tab part or add personal notes – all changes will be seen only by you.

Personal tabs can be accessed anytime from any device, even offline.
Learn more »
Give kudos to tab author, rate the tab!
1 2 3 4 5
comments
print report bad tab
guest
You may want to rate the tab now too:
select rating
Wanna post a correction for this tab? Suggest correction