Oops, an error
Loading. Please wait.

Party Hard tab

version 5
version 5
63,282 views 36 this week
15 commentsread comments
1 2 3 4 5
x 33
add to favorites
×
Save as Personal and add changes to this tab that will be seen only by you. Learn more ›
×
You can save this tab as Personal to edit and correct it or add notes. All changes will be seen only by you. Learn more »
launch autoscroll
font size
0
reset
how to read this tab
guitar tuner
edit
Autoscroll
slow
fast
+/-
esc
set tempo
stop
Author
Difficulty
[Intro]
e|---------------------------------------------------------------------------|
B|---------------------------------------------------------------------------|
G|---------------------------------------------------------------------------|
D|---2-2-2-2-2-2-2-2-2-2-2-2-2-2-2-2-2-2-2-2-2-2-2-2-2-2-2-2-2-2-2-2-2-2-2-2-|                
A|---2-2-2-2-2-2-2-2-2-2-2-2-2-2-2-2-2-2-2-2-2-2-2-2-2-2-2-2-2-2-2-2-2-2-2-2-|                
E|---0-0-0-0-0-0-0-0-0-0-0-0-0-0-0-0-0-0-0-0-0-0-0-0-0-0-0-0-0-0-0-0-0-0-0-0-|                
                                                          
[Intro Lead]
e|-----------------------------------------------2-2-4-0-|
B|------------------4-4-5-5------------------------------|
G|---1----2----4-----------------1----2----4-------------|
D|-----2----2----2-----------------2----2----2-----------|
A|-------------------------------------------------------|
E|-------------------------------------------------------|

[Verse]
e|---------------------------------------------------|
B|---------------------------------------------------|
G|---------4-2-2-2-----------6-4-4-4-4-8-9-----------|
D|---2-2-2-2-2-4-2-2-2-6-6-6-4-4-4-4-4-6-4-4-4-4-8-9-|   
A|---2-2-2-2-2-2-0-0-0-6-6-6-4-4-4-4-4-4-2-2-2-2-6-7-|    
E|---0-0-0-0-0-------4-4-4-2-2-2-2-2-----------------|    
                                        
e|-----------------------------------------------|     
B|-----------------------------------------------|     
G|---------4-2-2-2-----------6-4-4-8-9-----------|
D|---2-2-2-2-2-4-2-2-2-6-6-6-4-4-4-4-4-6-4-4-8-9-|
A|---2-2-2-2-2-2-0-0-0-6-6-6-4-4-4-4-4-4-2-2-6-7-|
E|---0-0-0-0-0-------4-4-4-2-2-2-2-2-------------|

[Verse 2]
e|----------------------------|
B|----------------------------|
G|----------------------------|
D|----------------------------|                 
A|----------------------------|                 
E|---12-0-12-10-0-10-9-0-9-0--|                 
                                               
e|----------------------------|                 
B|----------------------------|                 
G|----------------------------|
D|----------------------------|                 
A|----------------------------|                
E|---10-0-10-9-0-9-8-0-12-0---|                 
                                              
e|----------------------------------------------|    
B|----------------------------------------------|    
G|--------------------------------------7-7-----|
D|----------------------------9-9-9-9-9-9-9-7-7-|
A|----------------------------9-9-9-9-9-9-9-5-9-|
E|---8-0-8-7-0-7-6-0-5-0------7-7-7-7-7-7-7-----|

[Pre-Chorus]
e|----------------------------------------------------------|
B|------------------------------3-3-3-----------------------|
G|----------2-2-2-2-2-2-2---------2-2-2-2-2-2---------------|
D|--2-2-2-2-2-2-2-2-2-2-2-2-2-2-2-2-2-2-2-2-2-2-2-2-0-0-0---|     
A|--2-2-2-2-2-2-2-0-0-0-0-0-0-0-2-2-2-2-2-2-2-0-0-0---------|    
E|--0-0-0-0-0-0-0---------0-0-0-0-0-0-0---------------------|     
                                            
e|-----------------------------------------------------|       
B|-------------------------------5---------------------|        
G|----------2-2-2-2-2-2-2---------2-2-4-4--------------|
D|--2-2-2-2-2-2-2-2-2-2-2-2-2-2-2-2-2-2-2-2-2-2-2-4-2--|
A|--2-2-2-2-2-2-2-0-0-0-0-0-0-0-2-2-2-2-2-2-2-0-0-2----|
E|--0-0-0-0-0-0-0---------0-0-0-0-0-0-0----------------|

[Chorus]
e|---------------------------------------------------|
B|--------------------------------5------------------|
G|------2-2-2-----2-2-2-----2-2-2-4-4-4-4-4-4--------|
D|--2-2-2-2-2-2-2-2-2-2-2-2-2-2-2-2-2-2-4-4-4-4-4-2--|   
A|--2-2-2-0-0-0-2-2-2-0-0-0-2-2-2-0-0-0-2-2-2-2-2----|   
E|--0-0-0-----0-0-0-----0-0-0------------------------|   
                                        
e|-----------------------------------------------|     
B|-------------------------------5---------------|     
G|------2-2-2-----2-2-2-----2-2-2-2-2-4-4--------|
D|--2-2-2-2-2-2-2-2-2-2-2-2-2-2-2-2-2-2-2-2-4-2--|
A|--2-2-2-0-0-0-2-2-2-0-0-0-2-2-2-0-0-0-0-0-2----|
E|--0-0-0-----0-0-0-----0-0-0--------------------|

[Instrumental]
e|---------------------------------------------------------------------------|
B|---------------------------------------------------------------------------|
G|---------------------------------------------------------------------------|
D|---2-2-2-2-2-2-2-2-2-2-2-2-2-2-2-2-2-2-2-2-2-2-2-2-2-2-2-2-2-2-2-2-2-2-2-2-|                
A|---2-2-2-2-2-2-2-2-2-2-2-2-2-2-2-2-2-2-2-2-2-2-2-2-2-2-2-2-2-2-2-2-2-2-2-2-|                
E|---0-0-0-0-0-0-0-0-0-0-0-0-0-0-0-0-0-0-0-0-0-0-0-0-0-0-0-0-0-0-0-0-0-0-0-0-|                
                                                          
e|-----------------------------------------------2-2-4-0-|
B|------------------4-4-5-5------------------------------|
G|---1----2----4-----------------1----2----4-------------|
D|-----2----2----2-----------------2----2----2-----------|
A|-------------------------------------------------------|
E|-------------------------------------------------------|

[Verse]
e|---------------------------------------------------|
B|---------------------------------------------------|
G|---------4-2-2-2-----------6-4-4-4-4-8-9-----------|
D|---2-2-2-2-2-4-2-2-2-6-6-6-4-4-4-4-4-6-4-4-4-4-8-9-|   
A|---2-2-2-2-2-2-0-0-0-6-6-6-4-4-4-4-4-4-2-2-2-2-6-7-|    
E|---0-0-0-0-0-------4-4-4-2-2-2-2-2-----------------|    
                                        
e|-----------------------------------------------|     
B|-----------------------------------------------|     
G|---------4-2-2-2-----------6-4-4-8-9-----------|
D|---2-2-2-2-2-4-2-2-2-6-6-6-4-4-4-4-4-6-4-4-8-9-|
A|---2-2-2-2-2-2-0-0-0-6-6-6-4-4-4-4-4-4-2-2-6-7-|
E|---0-0-0-0-0-------4-4-4-2-2-2-2-2-------------|

[Verse 2]
e|----------------------------|
B|----------------------------|
G|----------------------------|
D|----------------------------|                 
A|----------------------------|                 
E|---12-0-12-10-0-10-9-0-9-0--|                 
                                               
e|----------------------------|                 
B|----------------------------|                 
G|----------------------------|
D|----------------------------|                 
A|----------------------------|                
E|---10-0-10-9-0-9-8-0-12-0---|                 
                                              
e|----------------------------------------------|    
B|----------------------------------------------|    
G|--------------------------------------7-7-----|
D|----------------------------9-9-9-9-9-9-9-7-7-|
A|----------------------------9-9-9-9-9-9-9-5-9-|
E|---8-0-8-7-0-7-6-0-5-0------7-7-7-7-7-7-7-----|

[Pre-Chorus]
e|----------------------------------------------------------|
B|------------------------------3-3-3-----------------------|
G|----------2-2-2-2-2-2-2---------2-2-2-2-2-2---------------|
D|--2-2-2-2-2-2-2-2-2-2-2-2-2-2-2-2-2-2-2-2-2-2-2-2-0-0-0---|     
A|--2-2-2-2-2-2-2-0-0-0-0-0-0-0-2-2-2-2-2-2-2-0-0-0---------|    
E|--0-0-0-0-0-0-0---------0-0-0-0-0-0-0---------------------|     
                                            
e|-----------------------------------------------------|       
B|-------------------------------5---------------------|        
G|----------2-2-2-2-2-2-2---------2-2-4-4--------------|
D|--2-2-2-2-2-2-2-2-2-2-2-2-2-2-2-2-2-2-2-2-2-2-2-4-2--|
A|--2-2-2-2-2-2-2-0-0-0-0-0-0-0-2-2-2-2-2-2-2-0-0-2----|
E|--0-0-0-0-0-0-0---------0-0-0-0-0-0-0----------------|

[Chorus] x2
e|---------------------------------------------------|
B|--------------------------------5------------------|
G|------2-2-2-----2-2-2-----2-2-2-4-4-4-4-4-4--------|
D|--2-2-2-2-2-2-2-2-2-2-2-2-2-2-2-2-2-2-4-4-4-4-4-2--|   
A|--2-2-2-0-0-0-2-2-2-0-0-0-2-2-2-0-0-0-2-2-2-2-2----|   
E|--0-0-0-----0-0-0-----0-0-0------------------------|   
                                        
e|-----------------------------------------------|     
B|-------------------------------5---------------|     
G|------2-2-2-----2-2-2-----2-2-2-2-2-4-4--------|
D|--2-2-2-2-2-2-2-2-2-2-2-2-2-2-2-2-2-2-2-2-4-2--|
A|--2-2-2-0-0-0-2-2-2-0-0-0-2-2-2-0-0-0-0-0-2----|
E|--0-0-0-----0-0-0-----0-0-0--------------------|

            
            
Suggest correction
Creating personal tab
Creating personal tab
You can edit any tab online and save it as your Personal.

You can edit, replace or remove any tab part or add personal notes – all changes will be seen only by you.

Personal tabs can be accessed anytime from any device, even offline.
Learn more »
comments
print report bad tab
15 comments total. Showing first comments.
+2 reply
Cry_Wolf666 41 Jun 15, 2006 01:13 AM

I dunno wots wrong with these people, this tab is the best one on here for Party Hard. u the man!! Party Hard

+1 reply
Td_Nights 186 Dec 08, 2006 08:37 PM

Yeah man,agreed,i like this tab alot better.

+1 reply
jagstang365 10 Jan 31, 2007 05:07 PM

this tab is awesome! i love this song! thanks for tabbing it man

guest
You may want to rate the tab now too:
select rating
Wanna post a correction for this tab? Suggest correction