Oops, an error
Loading. Please wait.

Ready To Die intro tab

version 1
version 1

Intro

Whole song

Interactive

3,698 views 1 this week
5 commentsread comments
1 2 3 4 5
x 6
add to favorites
×
Save as Personal and add changes to this tab that will be seen only by you. Learn more ›
×
You can save this tab as Personal to edit and correct it or add notes. All changes will be seen only by you. Learn more »
launch autoscroll
font size
0
reset
how to read this tab
guitar tuner
edit
Autoscroll
slow
fast
+/-
esc
set tempo
stop
Artist: Andrew WK
Song: Ready To Die
Album: I Get Wet
Tabbed By: NMLuck1 - The First Successful Person To Tab This Intro

Intro
e|--10---------------9-10-----------------9-10------|
B|-----10-7----7-7--------10-10-7-5-10-10-----------|
G|--------------------------------------------------|
D|--------------------------------------------------|
A|--------------------------------------------------|
E|--------------------------------------------------|

And repeat again

e|--10---------------9-10-----------------9-10------|
B|-----10-7----7-7--------10-10-7-5-10-10-----------|
G|--------------------------------------------------|
D|--------------------------------------------------|
A|--------------------------------------------------|
E|--------------------------------------------------|

Then the song will start playing the chords that are the same notes as these

            
            
Suggest correction
Creating personal tab
Creating personal tab
You can edit any tab online and save it as your Personal.

You can edit, replace or remove any tab part or add personal notes – all changes will be seen only by you.

Personal tabs can be accessed anytime from any device, even offline.
Learn more »
comments
print report bad tab
5 comments total. Showing first comments.
0 reply
modafaka 10 Jul 11, 2003 08:00 PM

this person is a tard with no sense of
music in their mind. If u're going to pick something out pick it out good.
Compare the skill of me(have been playing guitar for 9 months) to this guy. U'll be surprised.

Intro
e|--10---------------9-10----------------------9-10-|
B|-----10-7----7-7--------------8-7----10-10-------|
G|-------------------------7--7-----9---------------|
D|--------------------------------------------------|
A|--------------------------------------------------|
E|--------------------------------------------------|

0 reply
extrememan 50 Apr 12, 2004 08:00 PM

someone tab the full song

0 reply
tile josh 10 Aug 07, 2007 01:21 PM

pretty crappy

guest
Wanna post a correction for this tab? Suggest correction