Oops, an error
Loading. Please wait.

You Will Remember Tonight bass

195 views 1 this week
no commentswrite comment
1 2 3 4 5
3 more votes to show rating
add to favorites
×
Save as Personal and add changes to this tab that will be seen only by you. Learn more ›
×
You can save this tab as Personal to edit and correct it or add notes. All changes will be seen only by you. Learn more »
launch autoscroll
font size
0
reset
guitar tuner
edit
Autoscroll
slow
fast
+/-
esc
set tempo
stop
Difficulty
Andrew WK
You Will Remember Tonight
The MaDDBa$$i$T

A little Prenote:
The version I tabbed was his original release of the song, it did get changed slightly
it came out on the Close Calls with Brick Walls. SO this is not the album version, also
tab isn’t an exact 100% because anyone who listens to AWK knows how much is going on 
his songs. If you listen closely he layered two bass lines on top of each other for
parts. This will get you through the song, but there are little variations here and 
but they’re all along the C Major scale so you can figure them out. Add your own flare!

* - Let Ring
H - hammer
P - pull off
/ - Slide

Intro (after piano)
G|--------------------------------------------------------------------------|
D|--------------------------------------------------------------------------|
A|-3-3-3-3-3-3-3-3--8-8-8-8-8-8-8-8--10-10-10-10----------------------------|
E|------------------------------------------------8-10-12-10-8*--7H8*-------|

Verse (0:15) Listen for timing
G|--------------------------------------------------------------------------|
D|--------------------------------------------------------------------------|
A|-8*—7*—5*--3*------------------8-8-8-7-7-7-5-5-5-3-3-3--------------------|
E|--------------3-3-3-3-3-3-3-3--------------------------3-3-3-3-3-3-3-3----|

G|--------------------------------------------------------------------------|
D|--------------------------------------------------------------------------|
A|-8-8P7-7P5-5P3-3----------------------------------------------------------|
E|----------------3*--------------------------------------------------------|

Chorus (0:34)
G|--------------------------------------------------------------------------|
D|--------------------------------------------------------------------------|
A|--------------------------------------------------------------------------|
E|-/8-8-8-8-3-3-3-3-1-1-1-1-3-3-3-3-/8-8-8-8-3-3-3-3-1-1-1-1-3-3-3-3--------|

(0:46)
G|--------------------------------------------------------------------------|
D|--------------------------------------------------------------------------|
A|-3-3-3-3-3-3-3-3--8-8-8-8-8-8-8-8--10-10-10-10----------------------------|
E|------------------------------------------------8-10-12-10----------------|

Bridge (0:56)
G|--------------------------------------------------------------------------|
D|--------------------------------------------------------------------------|
A|---------------------------------------------------12-10-12-15------------|
E|-8-10-12-8-13-12-13-12-/1-1-1-1-3-3-3-3-8-10-12-10--------------/1-1-1-1--|

G|-------------------10-10-9-9-7-7------------------------------------------|
D|--------------------------------10-10-8-8-7-7-----------------------------|
A|---------------------------------------------10-10-8-8--------------------|
E|3-3-3-3-8-10-12-10--------------------------------------------------------|

Verse (1:11) Transition from bridge directly into verse
G|--------------------------------------------------------------------------|
D|--------------------------------------------------------------------------|
A|-8*—7*—5*--3*-----------------8-8-8-7-7-7-5-5-5-3-3-3---------------------|
E|--------------3-3-3-3-3-3-3-3-------------------------3-3-3-3-3-3-3-3-----|

G|--------------------------------------------------------------------------|
D|--------------------------------------------------------------------------|
A|-8—8P7—7P5--5P3-3-----------------3-2H3-2H3-2H3-----------------3*--------|
E|------------------3-3-3-3-1-1-1-1---------------3-3-3-3-1-1-1-1-----------|

(1:42) Repeat X3
G|--------------------------------------------------------------------------|
D|--------------------------------------------------------------------------|
A|-3-3-3-3------------------------------------------------------------------|
E|---------3-3-3-3-1-1-1-1-3-3-3-3------------------------------------------|

(2:02) X= NO BASS, Repeat X2
G|--------------------------------------------------------------------------|
D|--------------------------------------------------------------------------|
A|-3-3-3-3-3-3-3-3-2-2-2-2-2-2-2-2-7-7-7-7-7-7-7-7-X-X-X-X-X-X-X-X----------|
E|--------------------------------------------------------------------------|

(2:25) Repeat till End
G|--------------------------------------------------------------------------|
D|--------------------------------------------------------------------------|
A|-3-3-3-3-3-3-3-3-2-2-2-2-2-2-2-2-7-7-7-7-7-7-7-7-2-2-2-2-2-2-2-2----------|
E|--------------------------------------------------------------------------|

            
            
Suggest correction
Creating personal tab
Creating personal tab
You can edit any tab online and save it as your Personal.

You can edit, replace or remove any tab part or add personal notes – all changes will be seen only by you.

Personal tabs can be accessed anytime from any device, even offline.
Learn more »
Give kudos to tab author, rate the tab!
1 2 3 4 5
comments
print report bad tab
guest
Wanna post a correction for this tab? Suggest correction