Oops, an error
Loading. Please wait.

Andecy Tab

version 1
version 1

Whole song

Interactive

8,947 views 3 this week
no commentswrite comment
1 2 3 4 5
please rate
add to favorites
launch autoscroll
font size
0
reset
how to read this tab
guitar tuner
Autoscroll
slow
fast
+/-
esc
set tempo
stop
Help us to improve Ultimate-Guitar.com Take our survey!
×
ANDECY
                           As recorded by Andrew York
                        (From the 2000 Album PERFECT SKY)

Music by Andrew York
Arranged by Andrew York
Transcribed by Thoth

Gtr I (D A D G B E) - 'Untitled'

  H=72
 3/2
  Gtr I
  Q  E E +E  E +E  E E  E Q
|------------0-(0)------0-----|
|-1------------------3----3---|
|------2-(2)-------0-4----4---|
|----2------------------------|
|-0-------0-----0-----------0-|
|--------------------2--------|
  H       Q     Q    Q.     E


  Q  E E +E  E +E  E E  E Q     Q  E E +E  E +E  E E  E Q
|------------0-(0)------0-----|------------0-(0)------0-----|
|-1------------------3----3---|-1------------------3----3---|
|-2--2-------------0-4----4---|-2--2-------------0-4----4---|
|-2----2-(2)------------------|-2----2-(2)------------------|
|-0-------0-----0-----------0-|-0-------0-----0-----------0-|
|--------------------2--------|--------------------2--------|
  H       Q     Q    Q.     E   H       Q     Q    Q.     E


                          $
  Q  E E +E  E E E  H          Q  E E +E  E Q   Q   Q
|-------------------------||--^5------(5)-5S7---3---0---|
|-1----------0------1-----||o-----0-------------0-------|
|-2--2---------2----------||--^5----5-------------------|
|-2----2-(2)-----2--------||----------------------------|
|-0-------0--------(0)----||o--0-------0------0-------0-|
|-------------------------||--------------------2-------|
  H       H        +H          H       Q.     E Q.    E


  Q  E E +E  E +E  E E  E Q
|------------0-(0)------0------|
|-1------------------3----3----|
|------2-(2)-------0-4----4----|
|----2-------------------------|
|-0-------0-----0-----------0--|
|--------------------2---------|
  H       Q     Q    Q.     E


  Q  E E +E  E +E  E E  E Q
|------------0-(0)------0-----|
|-1------------------3----3---|
|-2--2-------------0-4----4---|
|-2----2-(2)------------------|
|-0-------0-----0-----------0-|
|--------------------2--------|
  H       Q     Q    Q.     E


 1.                         2.
  Q  E E +E  E E E H         Q  E E +E  E E E  Q     E E
|-------------------------||-------------------------0----|
|-1----------0-----1-----o||-1----------0------1-------3--|
|-2--2---------2----------||-2--2---------2---------------|
|-2----2-(2)-----2--------||-2----2-(2)-----2-----0-------|
|-0-------0-----------0--o||-0-------0--------(0)---------|
|-------------------------||------------------------------|
  H       H.          Q      H       H        +E  Q.


   Q  E E +E  E Q   E  E Q      Q  E E +E  E Q   E  E Q
|-------------0--------0-----|-------------0--------0-----|
|-^1------------1---3----3---|-^1------------1---3----3---|
|-^2--2-------------0----0---|-^2--2-------------4----4---|
|-^3----3-(3)-------0----0---|-^0----0-(0)-------0----0---|
|----------------------------|--------------------------0-|
|--0-------0------0-2------0-|--3-------0------0-5--------|
   H       Q.     E Q.     E    H       Q.     E Q.     E


  Q  E E +E  E +E  E E  E Q
|------------0-(0)------0------|
|-1------------------3----3----|
|-2--2-------------0-4----4----|
|-2----2-(2)-------------------|
|-0-------0-----0-----------0--|
|--------------------2---------|
  H       Q     Q    Q.     E


     <
  Q  E E +E  E E E  Q     E E
|-------------------------0---|
|-1----------0------1-------3-|
|-2--2---------2--------------|
|-2----2-(2)-----2-----0------|
|-0-------0--------(0)--------|
|-----------------------------|
  H       H        +E  Q.


   Q  E E +E  E Q   E  E Q      Q  E E +E  E Q   E  E Q
|-------------0--------0-----|-------------0--------0------|
|-^1------------1---3----3---|-^1------------1---3----3----|
|-^2--2-------------0----0---|-^2--2-------------4----4----|
|-^3----3-(3)-------0----0---|-^0----0-(0)-------0----0----|
|----------------------------|--------------------------0--|
|--0-------0------0-2------0-|--3-------0------0-5---------|
   H       Q.     E Q.     E    H       Q.     E Q.     E


  Q  E E +E  E +E  E E E E E   E E E E  E  E E E H
|----------------------------|------------------------|
|-1----------1-(1)-1p0-----0-|-------0--1p=0----------|
|-2--2-----------------2p0---|-2---2---------2--------|
|-2----2-(2)-----------------|---2-------------2------|
|-0-------0-----0------------|-0-------(0)-------0----|
|--------------------2-------|------------------------|
  H       Q     Q    H         H       +H        H


         ~~~~~~     ~~~~
      E  E E E +E   E Q    E  E E E
||--^-8------8-(8)--------^7------7--|
||o-^10-10---------10-----^8-10-8----|
||--^-9----9----------9---^7---------|
||-----------------------------------|
||o---0---------0-------0--7---------|
||-----------------------------------|
      H         Q.      E  H


  E E E E +E  E Q   E E  E E   +E  E E E +Q   Q   E  E Q
|-5-----5-(5)-------3S5----0-|-(0)------------0------0-----|
|---5-----------0---0----3---|-----1--------------3----3---|
|-5---5-------5-----0--------|-------2------------4----4---|
|----------------------------|---------2-(2)---------------|
|-0--------0------0----------|--0---------0-----0--------0-|
|-------------------2--------|--------------------2--------|
  H        Q.     E E Q.        H         Q.    E Q.     E


 1.
  Q  E E +E  E E E  Q.   E
|----------------------------||
|-1----------0------1-------o||
|-2--2---------2-------------||
|-2----2-(2)-----2-----------||
|-0-------0--------(0)------o||
|----------------------------||
  H       H        +H


  2.
  Q  E E +Q   E E  E  E  E E      E   E  E  E  E  E   E    E  E  E E E
|---------------------0------||------12----------10-----------8----7---|
|-1-----------0----3-------8-||o-10-----13-10-------<12>--------10---8-|
|-2--2----------5-------10---||---------------10---------<12>----------|
|-2----2-(2)-----------------||----------------------------------------|
|-0-------0-------(0)--------||o---------------------------------------|
|----------------------------||---0------------------------------------|
  H       H       +H              W.


   E  E  E E E E E E E E E E
|-----8--------7---0-5-----0--|
|-------10-6-----8-----6-8----|
|-10---------7----------------|
|-----------------------------|
|-----------------------------|
|--0--------------------------|
   W.


                                                  To Coda
  <                                             >
  E E E E  E  E E E E E E E   Q  E E +E  E +Q   E  E Q
|---5---------0---1-0-------|------------0-(0)-----0-----|
|-----6----8----0-----3-1-0-|------1-(1)--------3----3---|
|-7-----5-------------------|-2----2-(2)--------4----4---|
|-0-------(0)---------------|----2-----------------------|
|-------------------3---2---|-0-------0-----0----------0-|
|---------------------------|-------------------2--------|
  H       +H        Q   Q     H       Q     Q   Q.     E


 1.                             2.
                                              D.S. al Coda
              <
  Q  E E +Q   E E  E  E  E E     Q  E E +E  E E E  Q.   E
|---------------------0-------||-----------------------------||
|-1-----------0----3-------8-o||-1----------0------1---------||
|-2--2----------5-------10----||-2--2---------2--------------||
|-2----2-(2)------------------||-2----2-(2)-----2------------||
|-0-------0-------(0)--------o||-0-------0--------(0)--------||
|-----------------------------||-----------------------------||
  H       H       +H             H       H        +H


  &
  Q  E E +E  E E E  Q.   E     Q  E E +E  E Q   Q   Q
|--------------------------||-^5------(5)-5S7---3---0---|
|-1----------0------1------||-----0-------------0-------|
|-2--2---------2-----------||-^5----5-------------------|
|-2----2-(2)-----2---------||---------------------------|
|-0-------0--------(0)-----||--0-------0------0-------0-|
|--------------------------||-------------------2-------|
  H       H        +H          H       Q.     E Q.    E


  Q  E E +E  E +E  E E  E Q
|------------0-(0)------0------|
|-1------------------3----3----|
|------2-(2)-------0-4----4----|
|----2-------------------------|
|-0-------0-----0-----------0--|
|--------------------2---------|
  H       Q     Q    Q.     E


  Q  E E +E  E +E  E E  E Q
|------------0-(0)------0-----|
|-1------------------3----3---|
|-2--2-------------0-4----4---|
|-2----2-(2)------------------|
|-0-------0-----0-----------0-|
|--------------------2--------|
  H       Q     Q    Q.     E


  Q  E E +E  E E E  H        Q  E E +E  E Q   Q  Q
|-------------------------|-^5------(5)-5S7---3--0---|
|-1----------0------1-----|-----0-------------0------|
|-2--2---------2----------|-^5----5------------------|
|-2----2-(2)-----2--------|--------------------------|
|-0-------0--------(0)----|--------------------------|
|-------------------------|--3-------3------0-2------|
  H       H        +H        H       Q.     E H


  Q    E  E +Q   Q   E  E Q     Q    E  E +Q   Q   E E  Q
|----------------0------0-----|----------------0-----0------|
|-1--------------1---3----3---|-1--------------1---3----3---|
|-0-------0-(0)------0----0---|-2-------2-(2)------4----4---|
|-----------------------------|-3---------------------------|
|----<12>---------------------|----<19>---------------------|
|-3----------3-----0-2------0-|-0----------0-----0-2---(2)--|
  H          Q.    E Q.     E   H          Q.    E Q   +Q


  Q  E E +E  E +E  E E  E Q
|------------0-(0)------0------|
|-1------------------3----3----|
|------2-(2)-------0-4----4----|
|----2-------------------------|
|-0-------0-----0-----------0--|
|--------------------2---------|
  H       Q     Q    Q.     E


  Q  E E +E  E +E  E E  E Q
|------------0-(0)------0-----|
|-1------------------3----3---|
|-2--2-------------0-4----4---|
|-2----2-(2)------------------|
|-0-------0-----0-----------0-|
|--------------------2--------|
  H       Q     Q    Q.     E


                              H.=H
  Q  E E +E  E +E  E E  E Q     E E E E  E  E E E +H
|------------0-(0)------0-----|--------------------------*|
|-1------------------3----3---|-1-----0--1p=0------------*|
|-2--2-------------0-4----4---|-----2---------2----------*|
|-2----2-(2)------------------|---2-------------2-(2)----*|
|-0-------0-----0-----------0-|-0-------(0)--------0-----*|
|--------------------2--------|--------------------------*|
  H       Q     Q    Q.     E   H       +H         H


Duration Legend
---------------
W - whole; H - half; Q - quarter; E - 8th; S - 16th; T - 32nd; X - 64th; a - acciaccatura
+ - note tied to previous; . - note dotted; .. - note double dotted
Uncapitalized letters represent notes that are staccato (1/2 duration)
Irregular groupings are notated above the duration line
Duration letters will always appear directly above the note/fret number it represents the
duration for.  Duration letters with no fret number below them represent rests.  Multi-
bar rests are notated in the form Wxn, where n is the number of bars to rest for.  Low
melody durations appear below the staff

Tablature Legend
----------------
 h   - hammer-on
 p   - pull-off
 b   - bend
 pb  - pre-bend
 r   - bend release (if no number after the r, then release immediately)
 /\  - slide into or out of (from/to "nowhere")
 s   - legato slide
 S   - shift slide
  - natural harmonic
[n]  - artificial harmonic
n(n) - tapped harmonic
 ~   - vibrato
 tr  - trill
 T   - tap
 TP  - trem. picking
 PM  - palm muting
\n/  - tremolo bar dip; n = amount to dip
 \n  - tremolo bar down
 n/  - tremolo bar up
/n\  - tremolo bar inverted dip
 =   - hold bend; also acts as connecting device for hammers/pulls
 <>  - volume swell (louder/softer)
 x   - on rhythm slash represents muted slash
 o   - on rhythm slash represents single note slash

Misc Legend
-----------
 |  - bar
||  - double bar
||o - repeat start
o|| - repeat end
*|  - double bar (ending)
 :  - bar (freetime)
 $  - Segno
 &  - Coda
Tempo markers -  = BPM(8/16=s8/s16), where s8 = swing 8ths, s16 = swing 16ths


***************************************************************************************
* Generated using Power Tab Editor by Brad Larsen - http://powertab.guitarnetwork.org *
***************************************************************************************
Suggest correction
What's this?
You can suggest a correction to this tab. Community and Mods will review your correction and vote to approve or reject it.
comments
We did not receive enough feedback on this tab! Please rate:
print report bad tab
1 2 3 4 5
guest
You may want to rate the tab now too:
select rating
Please do not post tabs as comments. Select "correction" instead!