Oops, an error
Loading. Please wait.

Numen tab

10 views 3 this week
no commentswrite comment
1 2 3 4 5
3 more votes to show rating
add to favorites
×
Save as Personal and add changes to this tab that will be seen only by you. Learn more ›
×
You can save this tab as Personal to edit and correct it or add notes. All changes will be seen only by you. Learn more »
launch autoscroll
font size
0
reset
how to read this tab
guitar tuner
edit
Autoscroll
slow
fast
+/-
esc
set tempo
stop
I am referencing this recording, 
https://www.youtube.com/watch?v=HG_9qb5CsKM ,
to write this tab

4/4
  |       |       |       |        |       |       |       |        |       |       |       |        
e|--------5---------------------3-|--------5-----------12---------3-|5-----------------------5-------|
B|3-5-6-------------------3-5-6---|10------8---6-----5----3-5---6---|--------------5-6---8-------8---|
G|----------------------------7---|---------------------------------|------------7-------------------|
D|5-------5---------------5-----5-|--------5---5-----5----5-------5-|------------5-7-----5-----------|
A|--------8-----------------------|---------------------------------|--------------------------------|
E|--------------------------------|----------6----------------------|----------------------------6---|
 
  |       |       |       |        |       |       |       |        |       |       |       |        
e|--------12-12--------------------|----------------10------10--8---|8-----10------------------------|
B|---------------------------------|--------------------------------|--------------------------------|
G|10------9------9-----------------|--------7-----------------------|7-------------------------------|
D|----------------12---------------|--------------------------------|--------------------------------|
A|10-------------------------------|--------------10----1-----------|--------------------------------|
E|---------------------------------|--------------------------------|--------------------------------|
 
  |       |       |       |        |       |       |       |        |       |       |       |        
e|----------------------------3---|----------------------------3---|----------------3---5-----------|
B|--------------------------------|3-----------------------3-------|------------4-------------------|
G|--------------------2-----------|--------------------2-------0---|--------3---------------2-------|
D|----------------0---------------|----------------0---------------|--------5-----------5-----------|
A|--------------------------------|--------------------------------|----3-----------------------5---|
E|--------------------------------|--------------------------------|--------------------------------|
 
  |       |       |       |        |       |       |       |        |       |       |       |        
e|--------3---5-------------------|----3-----------------------3---|--------------------------------|
B|----3---------------------------|3---------------------4---------|----------------------------3---|
G|2---------------------------2---|----------------3---------------|----------------2---------------|
D|------------5---------------5---|----------------5---------------|--------------------------------|
A|------------------------5-------|------------3-------------------|--------------------------------|
E|--------------------------------|--------------------------------|--------------------------------|
 
  |       |       |       |        |       |       |       |        |       |       |       |        
e|----10--10----------8-----------|10------------------------------|------------------3-5-----------|
B|--------------------------------|--------------------------------|--------3---5---6---------------|
G|--------------------------------|--------------------------------|--------------------------------|
D|--------------------------------|--------------------------------|--------5---------5-------------|
A|--------10----------------------|--------------------1-----------|--------------------------------|
E|--------------------------------|--------------------------------|--------------------------------|
 
  |       |       |       |        |       |       |       |        |       |       |       |        
e|--------------3-5-------3---3---|--------------------3---5-------|----------------3-----5-----3---|
B|----3---5---6-----------------6-|----5-6-5---3-5---6-------------|----3---5---6-------------------|
G|--------------------------------|--------------------------------|--------------------------------|
D|----5---5-----5---------5-----5-|----5-------5-------5-----------|----5-----------5-----------5---|
A|--------------------------------|--------------------------------|----8---------------------------|
E|--------------------------------|--------------------------------|--------------------------------|
 
  |       |       |       |        |       |       |       |        |       |       |       |        
e|----------------------------3---|----6---------------------------|--------10------5---------------|
B|--------------------5---6-------|----6---------------------------|10------11--10--11------8-------|
G|----10------7-------7-----------|----7-----------------------12--|--------7---------------9-------|
D|----3---------------5-------5---|--------------------14--15------|--------------------------------|
A|----10------10------------------|--------------------------------|--------10--------------1-------|
E|--------------------------------|--------13----------15------15--|--------3-----------------------|
 
  |       |       |       |        |       |       |       |        |       |       |       |        
e|--------------------3-5---------|----------------5-------6-------|----6-------3-------------------|
B|------------5---6---------------|--------5---6-------------------|------------5-------------------|
G|--------------------------------|------------------------7-------|------------7-------------------|
D|--------------------5-----------|--------5-------5-------5-------|------------5-------------------|
A|--------------------------------|--------------------------------|--------------------------------|
E|------------------------6-------|------------------------6-------|--------------------------------|
 
  |       |       |       |        |       |       |       |        |       |       |       |        
e|--------------------3---5-------|------------------------3-------|------------3---5---------------|
B|--------------------------------|--------------------3-----------|--------4---------------3-------|
G|------------2-------------------|----------------2---------------|----3-------------------2-------|
D|--------------------------------|------------------------5-------|----5---5-------5---------------|
A|--------5-----------------------|------------5-------------------|3-------------------------------|
E|--------------------------------|--------------------------------|--------------------------------|
 
  |       |       |       |        |       |       |       |        |       |       |       |        
e|------------3---5---------------|------------3-------------------|3---6-----------------------3---|
B|--------3-----------------------|--------3-----------1-------4---|--------3---------------3-------|
G|----2---------------------------|----2-------0-----------3-------|--------------------5-----------|
D|--------5-----------------------|0-----------------------5-------|----5---7-------------------5---|
A|5-------------------------------|--------------------3-----------|--------------------------------|
E|--------------------------------|--------------------------------|----------------6---------------|
 
  |       |       |       |        |       |       |       |        |       |       |       |        
e|8-------------------------------|----------------3-------3-------|------------3-------------------|
B|----------------------------8---|--------3-------------------3---|------------3-------------------|
G|--------------------5---7-------|--------------------------------|----2---------------------------|
D|----------------9-----------5---|----5-------5---5-------5---5---|0---5---5-----------------------|
A|8-------------------------------|----3---------------------------|--------------------------------|
E|----------------6---------------|----3---------------------------|--------------------------------|
 
  |       |       |       |        |       |       |       |        |       |       |       |        
e|------------3-------------------|--------------------------------|--------------------------------|
B|----------------------------4---|--------------------------------|--------------------------------|
G|----2-------0-----------3-------|12------12------------------22--|0-------0-----------------------|
D|0-----------------------5-------|--------------------------------|--------------------------------|
A|--------------------3-----------|10------------------------------|--------------------------------|
E|--------------------------------|----------------------------22--|--------------------------------|
 
  |       |       |       |         |       |       |       |        |       |       |       |        
e|10-------------------------------|--------------------------------|------------------------10------|
B|-----------------------------15--|--------------------------------|--------------------------------|
G|----10--------------0-----15-----|----------------0---15----------|--------------------------------|
D|------------15------------17-----|15------15----------------------|--------------------------------|
A|--------17------17---------------|----17------17--------------1---|----------------------------8---|
E|------------15------17-----------|--------15--15--17--------------|--------3-----------------------|
 
  |       |       |       |        |       |       |       |        |       |       |       |        
e|--------------------------------|----------------3---6-----------|--------------------------------|
B|----------------------------15--|6---3-------3-------------------|--------------------11--15------|
G|--------10--7---0---15----------|--------------------------------|--------------------------------|
D|----------------17------17------|----5-------5---7---------------|------------------------13--12--|
A|--------10----------------------|--------------------------------|----10--------------------------|
E|----------------17----------15--|--------------------------------|----3-------2-----------15------|
 
  |       |       |       |        |       |       |       |        |       |       |       |        
e|------------------------10------|------------1-------------------|----1-----------6---10----10----|
B|15------8-------10--11----------|------------10------------------|--------------------------------|
G|--------10------12------8-------|8-----------12------------------|----------------0---8---7---8---|
D|13--12----------3-----------12--|----12--------------------------|--------------------------------|
A|--------10------10------10--10--|----10------10------------------|----------------------------10--|
E|--------------------------------|------------------3-------------|----3---------------------------|
 
  |       |       |       |        |       |       |       |        |       |       |       |        
e|----------------10------10------|--------------------------------|----10------10--------------10--|
B|--8-----10--11------------------|8---10----------------------8---|--------8-------8---------------|
G|7-10----12------8-------8-------|10------------------------------|----------------8-----12--------|
D|--------------------12------12--|--------------------------------|----7-----------------12--------|
A|--10------------10--10--10--10--|--------------------------------|----------------10----10----12--|
E|--------------------------------|--------------------3-----3-----|--------------------------------|
 
  |       |       |       |        |       |       |       |        |       |       |       |        
e|3-----------------3-------------|----------------3---10------10--|--------10----------------------|
B|--------8---------------3-------|--------------------------------|8---8---------------8-----------|
G|----0---8---7-----5---------0---|--------5-----------0---12------|8---7---0---12------8---7-------|
D|------------5-----5-------------|--------5-------5---------------|----------------------------10--|
A|--------------------------------|0---1---3-------5---12----------|10------12----------10------10--|
E|----------------------------3---|--------3-------3---------------|--------------------------------|
 
  |       |       |       |        |       |       |       |        |       |       |       |        
e|----------------------------3---|8-------8---3-------3---8-------|8-----------------------9-------|
B|8-------------------------------|----6-------4---3-----------6---|------------8---6---------------|
G|----7---------------5-----------|------------------------2-------|----7---8-----------------------|
D|------------7-------5---5-------|7-----------5---5-----------3---|--------------------7-------7---|
A|10------10--0---1---3---5---3---|----8---------------------------|--------10------8---8---10------|
E|--------3-----------3-------3---|--------------------------------|----8-------------------5---6---|
 
  |       |       |       |        |       |       |       |        |       |       |       |        
e|------------3---8-----8-----3---|--------------------------------|1-------------------------------|
B|--------------------6-------4---|----8---------------------------|----------------------------8---|
G|5-----------5---2---------------|7-------17------17----------17--|0---2---------------------------|
D|------------5---------------5---|5-------5---15--------------17--|----5---------------0---1-------|
A|----5---6-----------------------|--------------------18------17--|--------1-------3-----------10--|
E|3-------------------------------|--------17----------15----------|----------------------------8---|
 
  |       |       |       |        |       |       |       |        |       |       |       |        
e|----------------10--------------|------------------------10------|--------------10------13--------|
B|------------11------------------|----11--------------------------|--------11----------------------|
G|10--7-10--12--12----10----------|--------------------------10--7-|10----12--12----10------10------|
D|--------125-------------12--12--|7-------------------------------|----125-12----------12------12--|
A|10--10----12--------10--10--10--|10--10--------------------10----|----1012--10----10--10------10--|
E|--------------------------------|----------------3---------------|------10------------------------|
 
  |       |       |       |        |       |       |       |        |       |       |       |        
e|--6-------------3---6-----------|--------3-----------------------|--------3-----------------------|
B|--------------------5-----------|5-----------3---------------5---|----------3---------------------|
G|--------------------------------|3-----------2---------------3---|----------2---0---------0-------|
D|--3-5-------5-------------------|5-------3-------5-------5---5---|3---------5-----4---------------|
A|--------------------------------|--------------------------------|----------9---------------------|
E|------------3-------------------|--------------------------------|--------------------------------|
 
  |       |       |       |        |       |       |       |        |       |       |       |        
e|------------------------3-------|--------3---0-----------3-------|----------------3---------------|
B|----------------5-----------3---|----------------------------3---|--------------------------------|
G|--------0-------3-----------2---|0-------0---3---------------2---|----0-------0-------------------|
D|----------------5---3-----------|----------------3---------------|--4-----------------------------|
A|--------------------------------|--------------------------------|--------------------------------|
E|--------------------------------|--------------------------------|--------------------------------|
 
  |       |       |       |        |       |       |       |        |       |       |       |        
e|--------------------------------|------------------------------1-|--------------------------------|
B|--------------------------------|------------------------10------|------------------------108-----|
G|----------------------------0---|------------------------1212--12|----0---10--12----------10--7---|
D|--------------------------------|------------------------12------|----12------12------------------|
A|--------------------------------|------------------------12------|10--12--10----1210------108-10--|
E|--------------------------------|------------------------15------|--------------------------------|
 
  |       |       |       |        |       |       |       |        |       |       |       |        
e|----10--------------------------|--------------------------------|--------------------------------|
B|--------------------------------|------------------------1---3---|6-------------8-------------10--|
G|0-----------0-------------------|----------------2---------------|--------------------------------|
D|------------------12------------|----0-----------5---------------|--------------3-----------------|
A|12----------12----------10--12--|--------------------------------|--------3-----10----------------|
E|--------------------------------|--------------------------------|--------------------------------|
 
  |       |       |       |        |       |       |       |        |       |       |       |        
e|----------6---------5-----------|--------------1-----------------|------------------------5-------|
B|--------------------------------|3-------4-------------------1---|----------------6---------------|
G|--------------------------------|0-------0-----------2---3-------|--2-----2---5-------------------|
D|--------------------5-----------|--------------1-----5---5-------|------------------------5-------|
A|--------------------------------|--------------------------------|--5-------------------3---------|
E|----6-------------------8-------|--------------------------------|--------------------------------|
 
  |       |       |       |        |       |       |       |        |       |       |       |        
e|--------------------------------|--------------------------------|--------------------5-----------|
B|----------------11--------------|----3-------6-------------------|--------6-----------------------|
G|--------------------------------|----0-------8-------------------|----2---------------------4-3---|
D|--------9-------8-------5-------|------------5-------8---10--7---|----------------5---------------|
A|--------1---------------3-------|------------6-------10----------|--------------------------------|
E|8-----------------------3-------|----------------------------10--|------------------------6-------|
 
  |       |       |       |        |       |       |       |        |       |       |       |        
e|6---5---3-----------------------|--------------------------------|----------------------------3-5-|
B|----------------3---6-----------|--------1-------3---------------|------------------------------6-|
G|--------------------------------|2---3-----------2---------------|----------------------------0---|
D|------------5---5---------------|--------------------------------|--------------------------------|
A|------------3-------------6-----|--------------------------------|--------------------------------|
E|------------3-------------------|--------------------------------|--------------------------------|
 
  |       |       |       |        |       |       |       |        |       |       |       |        
e|------3---3---------5-----------|----7-----------14--14----------|----15--12--12--15--------------|
B|8-3-----6-------8-----6-8-------|--------3-----------------------|--------------------12----------|
G|--2-----------7-------------7---|--------2-------------------2---|--------------------------------|
D|----5-----5---7-----5---5-------|7---5---------------------------|12------------------12----------|
A|--------------10----------------|10------------------------------|--------------------12----------|
E|--------------------------------|----3---3-----------------------|----15------15------3-----------|
 
  |       |       |       |        |       |       |       |        |       |       |       |        
e|----14----------12----9-9-1012--|7---------------9-------7-------|------------------------7-------|
B|--------------------------------|--------------------10----------|----------------------------8-7-|
G|--------------------------------|7-------------------------------|------------------------7-------|
D|----------------12--------------|7-------------------------------|------------------------7-------|
A|----------------10--------------|--------10--------------10------|------------------------10------|
E|------15------------------------|3---------------3---------------|------------------------3---3---|
 
  |       |       |       |        |       |       |       |        |       |       |       |        
e|----------------------------5---|7---7---5-----------------------|--------------------------------|
B|--10--5---8-7-------------------|--------------------------------|----1-----------0---------------|
G|12--110---------7---6---7---6---|----7-----------7---------6-----|----4---------------------------|
D|------7---5-5-------5-----------|----5-----------5---5-----------|----7---------------------------|
A|10--9---------------------------|--------------------------------|--------------------------------|
E|--3-------------------------3---|3-------------------------------|--------------------------------|
 
  |       |       |       |        |       |       |       |        |       |       |       |        
e|--------------------------------|--------1-----------------------|0---3---------------3-----------|
B|--------------------------------|--------108-------------8-------|----3-------------------5-------|
G|--------------------------------|--------127-----------10----7---|3-------2-----------0---3-------|
D|--------------------------------|------------7---------------7---|----3---5---------------5---3---|
A|--------------------------------|--------10------10----10--------|--------9-----------------------|
E|--------------------------------|--------------------------------|--------------------------------|
 
  |       |       |       |        |       |       |       |        |       |       |       |        
e|----3---------------5-----------|--------------------------------|----------------------0---------|
B|----6---3-----------------------|--------------------------------|--------------------3-------8---|
G|--------2-----------------------|--------------------------------|--------0-----------0-------10--|
D|----------------5-----------5---|--------------------------------|----------------------------3---|
A|----------------9---------------|--------------------------------|----------------------------10--|
E|--------------------------------|--------------------------------|--------------------------------|
 
  |       |       |       |        |       |       |       |        |       |       |       |        
e|5---------------------------3---|----5-------3-------------------|--12----------------3---5-------|
B|----------------3---5---6-------|--------------------6-----------|--------3---5---6---------------|
G|--------------------------------|--------------------------------|10------------------------------|
D|----------------5-----------5---|----3-------5-------5-----------|14------5-----------5---3-------|
A|--------------------------------|--------------------------------|--------8-----------------------|
E|--------------------------------|--------------------------------|--------------------------------|
 
  |       |       |       |        |       |       |       |        |       |       |       |        
e|----------------3-------6---10--|6-5-----3-----------------------|----3-------6-------------------|
B|--------------------3-----------|--------5-------------------5---|6-------------------------------|
G|--------9---10----------7-------|--------------------------------|------------7-------------------|
D|----------------5-------5-------|5-------5-------------------5---|----5-------5-------------------|
A|--------10------8---------------|--------------------------------|--------------------------------|
E|--------------------------------|--------------------------------|--------------------------------|
 
  |       |       |       |        |       |       |       |        |       |       |       |        
e|0-------------------------------|----3---------------------------|--------3---5---------------3---|
B|--------------------------------|--------------------------------|----3-------------------4-------|
G|0---------------------------2---|--------------------------------|2-------------------3-----------|
D|------------------------0-------|----------------------------0---|--------5-----------5-----------|
A|--------------------------------|--------------------------------|----------------3---------------|
E|--------------------------------|--------------------------------|--------------------------------|
 
  |       |       |       |        |       |       |       |        |       |       |       |        
e|----5-----------------------3---|----------------------------10--|----------------3---6-----------|
B|------------------------3-------|10------------------------------|------------4-----------3-------|
G|--------2-----------2-----------|--------------------------------|----5---3-----------------------|
D|----5---------------------------|--------------------7-----------|------5-----5-----------7-------|
A|----------------5---------------|10--------------------------10--|----3---------------------------|
E|--------------------------------|----------------10--------------|--------------------------------|
 
  |       |       |       |        |       |       |       |        |       |       |       |        
e|----------------8---------------|----------------8-----------10--|----10--------------------------|
B|------------8-------------------|------------8-------------------|8-------8-------------------8---|
G|----5---7-----------------------|--------7---------------7-------|7-----------7-----------7-------|
D|--------5-------5---------------|----10--------------10----------|--------------------7-----------|
A|--------------------------------|1-------10------------------10--|----10--10----------10----------|
E|6-------------------------------|--------------------8-----------|----------------10--------------|
 
  |       |       |       |        |       |       |       |        |       |       |       |        
e|--------------------------------|------------------------3-------|--------------------------------|
B|----------------------------3---|--------1-------4---------------|3---------------------------3---|
G|--------------------2-------0---|------------3-----------0-------|--------------------------------|
D|----------------0---------------|------------5-------------------|--------------------------------|
A|--------------------------------|--------3-----------------------|--------------------------------|
E|--------------------------------|--------------------------------|--------------------------------|
 
  |       |       |       |        |       |       |       |        |       |       |       |        
e|------------10----------10------|10------10----------------------|------------10------------------|
B|--------------------------------|--------------------------------|----11--8-----------------------|
G|--------------------------------|----------------10--7---10--7---|----------------10--7---10--7---|
D|--------------------------------|--------------------------------|7-------------------------------|
A|10------------------------------|--------------------------------|10------------------------------|
E|--------------------------------|--------------------------------|--------------------------------|
 
  |       |       |       |        |       |       |       |        |       |       |       |        
e|----6---------------------------|----10--------------------------|--------10----------------------|
B|--------------------------------|--------------------------------|11--8---------------6-----------|
G|0-------------------------------|----------10--------10----7-----|------------10--7---------------|
D|7---3---------------------------|----------------12------------7-|----------------5---------------|
A|--------------------------------|--------------------10------10--|------------10------------------|
E|------------------------3-------|--------------------------------|--------------------------------|
 
  |       |       |       |        |       |       |       |        |       |       |       |        
e|6---------------------------6---|10------10----------------------|----------------3---5-----------|
B|--------------------------------|----------------8---10--8---11--|4-------4---3---6---------------|
G|7-------------------------------|8---7---8---7---10--------------|--------7-----------------------|
D|7-------------------------------|--------------------------------|5-------5---5-------------------|
A|--------------------------------|10--------------10--10----------|--------------------------------|
E|----------------3---------------|--------------------------------|------------------------3-------|
 
  |       |       |       |        |       |       |       |        |       |       |       |        
e|--------------------6-----------|10------------------10----------|--------------------------------|
B|------------------------4---3---|------8-----10--11--------------|------8-----10------------------|
G|--------------------------------|8---7---10--12------8---7---8---|7---10--------------------------|
D|------------------------5-------|--------12----------------------|--------------------------------|
A|--------------------------------|10----1010--10------10------10--|--------------------------------|
E|1-------3-----3-----------------|--------------------------------|------------------------3---3---|
 
  |       |       |       |        |       |       |       |        |       |       |       |        
e|------------------------10------|--------10----------------------|--------7-------------------3---|
B|----8-------------8---------8---|--8-----------------8-----------|8-------------------------------|
G|----------------------------8---|7-------0---12------8-----------|5---7-------7-------5-----------|
D|------------7-------------------|------------------------12------|--------5-----------5-------5---|
A|------------10----------10------|10------12--------1010----------|--------------------3---5-------|
E|--------------------------------|--------------------------------|--------3---5---6---3-----------|
 
  |       |        |       |        |       |        |       |        |       |       |       |        
e|10----10---------10----------10--|--------7--------------3---8-----|8-------3---8-----8--------------|
B|----------8----8-------------3---|----8------------1---------------|6---8---3-------6-----3-4--------|
G|0---12----8--7---0---12------12--|---------------------------2-----|----8-------2---------------12-10|
D|-----------------------------13--|10-------------------0-5-3-------|--------5---------------5---12---|
A|12--------10-10--12----------10--|10--10--10-0-1---3-----3---------|--------3-------------------10---|
E|---------------------------------|14------3--------3---------------|--------3------------------------|
 
  |       |       |       |        |       |       |       |        |       |       |       |        
e|-----9---------------------------|----8---------------8-------8---|--------3---1-------------------|
B|-------------------------8-------|6-------8-------8---------------|3---4---------------------------|
G|-----------------------------17--|--------8---7-----------10------|0---------------2---------------|
D|--7--------------------------5---|--------------------7-----------|----3---------------------------|
A|--10-8-------3-------6-----------|--------10--10------------------|--------------------0---1---3---|
E|-----5-6-----3---10----------17--|--------------------------------|--------------------------------|
 
  |       |       |       |        |       |       |       |        |       |       |       |        
e|--------------------------------|----------------10--------------|--------------------------------|
B|------------8-------------------|--------11----------------------|----11--------------------------|
G|----0---------------10----7-10--|7---12------12----10------------|--------------------------------|
D|0---1-------10------------------|----5-------------------12--12--|----12--------------------------|
A|--------------------------10----|----12----------10--------------|--------------------------------|
E|3-----------10------------------|--------------------------------|----13--------------3---3-------|
 
  |       |       |       |        |       |       |       |        |       |       |       |        
e|--------------------------10----|--------13----------------------|13------------------10----10----|
B|--------------------11----------|--------------------------------|--------------------------------|
G|----10--7-10----0-------12------|10------------------10----------|--------------------------------|
D|----------------12--------------|----12--------12----------12----|------------12--5---------------|
A|----------10----12--------------|10------------------------------|10----------10--8---------------|
E|--------------------------------|--------------------------13----|--------------------------------|
 
  |       |       |       |        |       |       |       |        |       |       |       |        
e|10----------8-------8-------10--|--------------------------------|--------------------------------|
B|--------------------------------|--------------------------------|--------------------------------|
G|--------------------------------|--------------------------------|--------------------------------|
D|--------------------------------|--------------------------------|------------------------0-------|
A|--------------------------------|----1---------------------------|--------------------------------|
E|--------------------------------|--------------------------------|--------------------------------|
 
  |       |       |       |        |       |       |       |        |       |       |       |        
e|--------1-----------------------|--------1-------------------1---|3-1---------------------1-------|
B|----------------3---------------|3-------------------3-------1---|------1---------------1-----1---|
G|----2-----------------------2---|--------------------2-----------|------------2-------2-----------|
D|--------------------------------|----------------------------1---|--------0-----------------------|
A|----------------------3---------|--------3-----------------------|--------------------------------|
E|----------------------6---------|--------------------------------|--------------------------------|
 
  |       |       |       |        |       |       |       |        |       |       |       |        
e|--------------------------------|------------1-------------------|------1-------------------------|
B|3---------------3---------------|3-----------1-----8-------------|----1---1-------------------3---|
G|2-----------2-------2---10------|--0-2-------------10------------|--2---------2-----------2-------|
D|------------------------10--10--|------------1-------10--7---7---|--------------------------------|
A|----3---1-------------------10--|------------------10------------|----------------3---1-----------|
E|------------------------8-------|------------------------10------|--------------------------------|
 
  |       |       |       |        |       |       |       |        |       |       |       |        
e|--------8-------------1---------|--------------------1-----------|----------------------------8---|
B|----------------------1-----8---|1-----------------1-----1-------|--------------------------------|
G|----10------7---------------10--|----2---2-------2-----------2---|----------------7-------10------|
D|7---10----------7-----1---------|----0---------------------------|--10----9---7-------7-10--------|
A|------------10--10----------10--|--------------------------------|--10----1-----------10--10--10--|
E|----8---------------------------|--------------------------------|--8-----------------3---8-------|
 
  |       |       |       |        |       |       |       |        |       |       |       |        
e|----------1-3-------------------|------------1-------------------|----------------8---------------|
B|3---------1---------------------|----3-----1-3---1-------1---0---|--------------------------------|
G|----2-----------10--------------|2-------2-----------2-----0-----|----7-------10------7---------10|
D|3---5-----1-----10------7-------|--------------------------------|--------7---10----------7---10--|
A|----------------10--------------|------------------------3---1---|8---8-------10----------10------|
E|------------------------10------|--------------------------------|--------3---8-------3---3---11--|
 
  |        |       |       |        |       |       |       |        |       |       |       |        
e|---------------------------------|--------------------------------|------------------------1---3---|
B|---------------------------------|--------------------------------|----------------3---------------|
G|12-------------------------------|----------------------------0---|----------------------------0---|
D|12-------------------------------|--------------------------------|--------------------------------|
A|10-12-10-------------------------|--------------------------------|--------------------------------|
E|---------------------------------|--------------------------------|--------------------------------|
 
  |       |       |       |        |       |       |       |        |       |       |       |        
e|5---------------------------3---|----------------------------10--|--------------8-----------------|
B|----------------3---5---6-------|10----------------------11------|--------------------------------|
G|--------------------------------|--------------------------------|--------------9-----------------|
D|----------------5-----------5---|------------------------12------|--------------------------------|
A|--------------------------------|10--8-------------------10------|--------------------------------|
E|--------------------------------|--------------------------------|--------------------8-----------|
 
  |       |       |       |        |       |       |       |        
e|------------10------------------|--------------------------------|
B|------------13------------------|--------------------------------|
G|------------14------------------|--------------------------------|
D|--------------------------------|--------------------------------|
A|--------------------------------|--------------------------------|
E|--------------------------------|--------------------------------|
Suggest correction
Creating personal tab
Creating personal tab
You can edit any tab online and save it as your Personal.

You can edit, replace or remove any tab part or add personal notes – all changes will be seen only by you.

Personal tabs can be accessed anytime from any device, even offline.
Learn more »
Give kudos to tab author, rate the tab!
1 2 3 4 5
comments
print report bad tab
guest
You may want to rate the tab now too:
select rating
Wanna post a correction for this tab? Suggest correction