Oops, an error
Loading. Please wait.

Snowflight tab

version 1
version 1

Whole song

Interactive

7,712 views 111 this week
2 commentsread comments
1 2 3 4 5
x 9
add to favorites
×
Save as Personal and add changes to this tab that will be seen only by you. Learn more ›
×
You can save this tab as Personal to edit and correct it or add notes. All changes will be seen only by you. Learn more »
launch autoscroll
font size
0
reset
how to read this tab
guitar tuner
edit
Autoscroll
slow
fast
+/-
esc
set tempo
stop
Author
SNOWFLIGHT - Andrew York
Standard Tuning

e|---------------------------------------------------|
B|-----------0-----------0-----------0-----------0---|
G|-------0-----------0-----------2-----------2-------|
D|---------------------------0-----------0-----------|
A|---3-----------3-----------------------------------|
E|---------------------------------------------------|

E|---------------------------------------------------|
A|-----------0-----------0----------0------------0---|
D|-------0-----------0-----------0-----------0-------|
G|---2-----------2-----------2-----------2-----------|
B|---------------------------------------------------|
e|---------------------------------------------------|

E|-----------0-----------0-----------0-----------0---|
A|-------0-----------0-----------1-----------1-------|
D|---------------------------------------------------|
G|---------------------------0-----------0-----------|
B|---3-----------3-----------------------------------|
e|---------------------------------------------------|

E|-----------0-----------0-----------0---------------|
A|-------0-----------0-----------0-------------------|
D|---------------------------------------------------|
G|---2-----------2-----------2-----------2-----------|
B|---------------------------------------------------|
e|---------------------------------------------------|

E|-----------0-----------0-----------0-----------0---|
A|-------0-----------0-----------0-----------0-------|
D|---------------------------0-----------0-----------|
G|---4-----------4-----------------------------------|
B|---------------------------------------------------|
e|---------------------------------------------------|

E|-----------0-----------0-----------0-----------0---|
A|-------1-----------1-----------0-----------0-------|
D|---2-----------2-----------0-----------0-----------|
G|---------------------------------------------------|
B|---------------------------------------------------|
e|---------------------------------------------------|

E|-----------0-----------0-----------0-----------0---|
A|-------0-----------0-----------1-----------1-------|
D|---------------------------------------------------|
G|---4-----------4-----------2-----------2-----------|
B|---------------------------------------------------|
e|---------------------------------------------------|

E|---------------------------------------------------|
A|-----------3-----------3-----------3---------------|
D|-------2-----------2-----------2-------------------|
G|---0-----------0-----------0-----------0-----------|
B|---------------------------------------------------|
e|---------------------------------------------------|

E|---------------------------------------------------|
A|---------------------------------------------------|
D|-----------0-----------0------------0-----------0--|
G|-------0-----------0------------2-----------2------|
B|---2-----------2------------3-----------3----------|
e|---------------------------------------------------|

E|---------------------------------------------------|
A|---------------------------------------------------|
D|-----------0-----------0-----------0-----------0---|
G|-------4-----------4-----------4-----------4-------|
B|---5-----------5-----------5-----------5-----------|
e|---------------------------------------------------|

E|---------------------------------------------------|
A|-----------0-----------0-----------0-----------0---|
D|-------0-----------0-----------2-----------2-------|
G|---------------------------0-----------0-----------|
B|---3-----------3-----------------------------------|
e|---------------------------------------------------|

E|---------------------------------------0-----------|
A|-----------0-----------0-----------0---------------|
D|-------0-----------0-----------0-------------------|
G|---2-----------2-----------2-----------------------|
B|---------------------------------------------------|
e|---------------------------------------------------|

E|-----------3-----------3-----------2-----------2---|
A|-------0-----------0-----------0-----------0-------|
D|---------------------------------------------------|
G|---2-----------2-----------1-----------1-----------|
B|---------------------------------------------------|
e|---------------------------------------------------|

E|-----------0-----------0-----------0-----------0---|
A|-------0-----------0-----------0-----------0-------|
D|---------------------------------------------------|
G|---0-----------0-----------------------------------|
B|---------------------------4-----------4-----------|
e|---------------------------------------------------|

E|-----------0-----------0---------------------------|
A|-------0-----------0---------------3-----------3---|
D|-------------------------------2-----------2-------|
G|---------------------------0-----------0-----------|
B|---3-----------3-----------------------------------|
e|---------------------------------------------------|

E|---------------------------------------------------|
A|-----------0-----------0-----------0---------------|
D|-------0-----------0-----------0-------------------|
G|---------------------------------------------------|
B|---------------------------------------------------|
e|---3-----------3-----------3-----------3-----------|

E|---------------------------------------------------|
A|---------------------------------------------------|
D|-----------0-----------0-----------0-----------0---|
G|-------0-----------0-----------2-----------2-------|
B|---2-----------2-----------3-----------3-----------|
e|---------------------------------------------------|

E|---------------------------------------------------|
A|---------------------------------------------------|
D|-----------0-----------0-----------0-----------0---|
G|-------4-----------4-----------4-----------4-------|
B|---5-----------5-----------5-----------5-----------|
e|---------------------------------------------------|

E|---------------------------------------------------|
A|-----------0-----------0-----------0-----------0---|
D|-------0-----------0-----------2-----------2-------|
G|---------------------------0-----------0-----------|
B|---3-----------3-----------------------------------|
e|---------------------------------------------------|

E|---------------------------------------0-----------|
A|-----------0-----------0-----------0---------------|
D|-------0-----------0-----------0-------------------|
G|---2-----------2-----------2-----------------------|
B|---------------------------------------------------|
e|---------------------------------------------------|

E|-----------3-----------3-----------2-----------2---|
A|-------0-----------0-----------0-----------0-------|
D|---------------------------------------------------|
G|---2-----------2-----------1-----------1-----------|
B|---------------------------------------------------|
e|---------------------------------------------------|

E|-----------0-----------0-----------0---------------|
A|-------0-----------0-----------0-------------------|
D|---------------------------------------------------|
G|---0-----------0-----------------------------------|
B|---------------------------4-----------4-----------|
e|---------------------------------------------------|

E|---------------------------------------------------|
A|---------------------------------------------------|
D|-----------0-----------0-----------2-----------2---|
G|-------0-----------0-----------0-----------0-------|
B|---3-----------3-----------------------------------|
e|---------------------------2-----------2-----------|

E|---------------------------------------------------|
A|---------------------------------------------------|
D|-----------0-----------0---------------------------|
G|-------2-----------2-------------------------------|
B|---------------------------------------------------|
e|---0-----------0-----------0-----------------------|

E|---------------------------------------------------|
A|-----------0-----------0-----------0-----------0---|
D|-------0-----------0-----------2-----------2-------|
G|---------------------------0-----------0-----------|
B|---3-----------3-----------------------------------|
e|---------------------------------------------------|

E|---------------------------------------------------|
A|-----------0-----------0-----------0-----------0---|
D|-------0-----------0-----------0-----------0-------|
G|---2-----------2-----------2-----------2-----------|
B|---------------------------------------------------|
e|---------------------------------------------------|

E|-----------0-----------0-----------0-----------0---|
A|-------0-----------0-----------1-----------1-------|
D|---------------------------------------------------|
G|---------------------------0-----------0-----------|
B|---3-----------3-----------------------------------|
e|---------------------------------------------------|

E|-----------0-----------0-----------0---------------|
A|-------0-----------0-----------0-------------------|
D|---------------------------------------------------|
G|---2-----------2-----------2-----------2-----------|
B|---------------------------------------------------|
e|---------------------------------------------------|

E|-----------0-----------0-----------0-----------0---|
A|-------0-----------0-----------0-----------0-------|
D|---------------------------0-----------0-----------|
G|---4-----------4-----------------------------------|
B|---------------------------------------------------|
e|---------------------------------------------------|

E|-----------0-----------0-----------0-----------0---|
A|-------1-----------1-----------0-----------0-------|
D|---2-----------2-----------0-----------0-----------|
G|---------------------------------------------------|
B|---------------------------------------------------|
e|---------------------------------------------------|

E|-----------0-----------0-----------0-----------0---|
A|-------0-----------0-----------1-----------1-------|
D|---------------------------------------------------|
G|---4-----------4-----------2-----------2-----------|
B|---------------------------------------------------|
e|---------------------------------------------------|

E|---------------------------------------------------|
A|-----------3-----------3-----------3---------------|
D|-------2-----------2-----------2-------------------|
G|---0-----------0-----------0-----------0-----------|
B|---------------------------------------------------|
e|---------------------------------------------------|

E|---------------------------------------------------|
A|-----------0-----------0-----------0-----------0---|
D|-------0-----------0-----------2-----------2-------|
G|---------------------------0-----------0-----------|
B|---3-----------3-----------------------------------|
e|---------------------------------------------------|

E|---------------------------------------------------|
A|-----------0-----------0-----------0-----------0---|
D|-------0-----------0-----------0-----------0-------|
G|---2-----------2-----------2-----------2-----------|
B|---------------------------------------------------|
e|---------------------------------------------------|

E|-----------0-----------0-----------0-----------0---|
A|-------0-----------0-----------1-----------1-------|
D|---------------------------------------------------|
G|---------------------------0-----------0-----------|
B|---3-----------3-----------------------------------|
e|---------------------------------------------------|

E|-----------0-----------0-----------0---------------|
A|-------0-----------0-----------0-------------------|
D|---------------------------------------------------|
G|---2-----------2-----------2------------2----------|
B|---------------------------------------------------|
e|---------------------------------------------------|

E|---------------------------------------------------|
A|---------------------------------------------------|
D|-----------0-----------0-----------2-----------2---|
G|-------0-----------0-----------0-----------0-------|
B|---3-----------3-----------------------------------|
e|---------------------------2-----------2-----------|

E|---------------------------------------------------|
A|-----------------------------------0-----------0---|
D|-----------0-----------0-------0-----------0-------|
G|-------2-----------2-------------------------------|
B|---------------------------------------------------|
e|---0-----------0-----------0-----------0-----------|

E|-----------0-----------0------------3----------3---|
A|-------0-----------0------------5----------5-------|
D|---------------------------------------------------|
G|---------------------------------------------------|
B|---------------------------------------------------|
e|---0-----------0------------0----------0-----------|

E|---7----------------------------------------------||
A|---8----------------------------------------------||
D|--------------------------------------------------||
G|--------------------------------------------------||
B|--------------------------------------------------||
e|--------------------------------------------------||

            
            
Suggest correction
Creating personal tab
Creating personal tab
You can edit any tab online and save it as your Personal.

You can edit, replace or remove any tab part or add personal notes – all changes will be seen only by you.

Personal tabs can be accessed anytime from any device, even offline.
Learn more »
comments
print report bad tab
2 comments total.
0 reply
vikkasrao99 10 Apr 21, 2017 12:21 AM

nice. but strings flip in second line ;)

0 reply
vikkasrao99 10 Apr 21, 2017 12:21 AM

which should not happen.

guest
You may want to rate the tab now too:
select rating
Wanna post a correction for this tab? Suggest correction