Oops, an error
Loading. Please wait.

Cocaine solo tab

149 views 1 this week
2 commentsread comments
1 2 3 4 5
x 4
add to favorites
×
Save as Personal and add changes to this tab that will be seen only by you. Learn more ›
×
You can save this tab as Personal to edit and correct it or add notes. All changes will be seen only by you. Learn more »
launch autoscroll
font size
0
reset
how to read this tab
guitar tuner
edit
Autoscroll
slow
fast
+/-
esc
set tempo
stop
---------------------------------------------------------------------------------------------------------------
                                          Artist - Andwella's Dream
                                         ***************************
                                               Song - Cocaine
                                              ****************
                                          Album - Love And Poetry   
                                         *************************
                                            Tabbed By - Ayreon77
                                           **********************
---------------------------------------------------------------------------------------------------------------
Tuning = Standard


INTRO                                                          VOCALS
******                                                         *******  00:20
e|-----------|---------|------------------------|-----------|           e|---------|
B|-----------|--s------|--s----s---------s------|--------s--|           B|------h--| 
G|-----------|-7\9~~~~-|-7\9--9\11--9-7-7\9~~~~-|-7-7-7-7\9-|           G|-7-9-7-9-|
D|------h--5-|---------|------------------------|-----------|           D|---------|
A|--h--5-7---|---------|------------------------|-----------|           A|---------|
E|-5-7-------|---------|------------------------|-----------|           E|---------|


-------------------------
01:24
SOLO
*****
e|-----h-p---------------------------------|-----------------------|--------------------|
B|----7-9-7---7----h-p----h-p-----------h--|-----------------------|-----------h-p------|
G|----------9---9-7-9-7--6-7-6--s--7-9-7-9-|-9-7-------------------|--s---s---7-9-7---7-|
D|-9---------------------------7\9---------|-----9-7-------------s-|-5\7-7\9--------9---|
A|-----------------------------------------|---------10-7-10-7-7~\-|--------------------|
E|-----------------------------------------|-----------------------|--------------------|


e|--h-p--------------h--p--------------------|------b--12--rbp---brp---------|----b-10------|
B|-7-8-7------8-10-10-11-10----10------------|---8-10-----10--8-10--8-10-8---|---10----10---|
G|-------9--9---------------12----12-9~~~~~~-|-9---------------------------9-|-9----------9-|
D|-------------------------------------------|-------------------------------|--------------|
A|-------------------------------------------|-------------------------------|--------------|
E|-------------------------------------------|-------------------------------|--------------|

01:37
e|--h-p-------------------------------------|-------------------------------------|-----------------|
B|-7-9-7---7------------h-p-----------------|-------------------------------------|------h-p--------|
G|-------9---9-7---7-9-7-9-7---7------------|-------------------------------------|--s--7-9-7---7---|
D|---------------9-----------9---9-7--------|------h--p--------h--p--------h--p---|-7\9-------9---9-|
A|-----------------------------------7-10-7-|----10-11-10----10-11-10----10-11-10-|-----------------|
E|------------------------------------------|-12----------12----------12----------|-----------------|

01:42                        Rake
e|--------------------------|------h-p--------------------------------------|-------------|
B|-----b----h-p-------------|---9-7-9-7---7----h-p--------------------------|-------------|
G|-7-9-9-9-7-9-7---7~~------|--9--------9---9-7-9-7---7----s-----h-p--------|--h-s--7-7---|
D|---------------9-----9~~~-|-9---------------------9---9-7\5---5-7-5---5---|-5-7\9-----9-|
A|--------------------------|---------------------------------7-------7---7-|-------------|
E|--------------------------|-----------------------------------------------|-------------|

01:48
e|--------------------------------------|
B|----p---------h-p-----h-p-----h-------|
G|-7-9-7---7---7-9-7---7-9-7---7-9~~~~~-|
D|-------9---9-------9-------9----------|
A|--------------------------------------|
E|--------------------------------------|



ENJOY...........
Suggest correction
Creating personal tab
Creating personal tab
You can edit any tab online and save it as your Personal.

You can edit, replace or remove any tab part or add personal notes – all changes will be seen only by you.

Personal tabs can be accessed anytime from any device, even offline.
Learn more »
comments
print report bad tab
2 comments total.
0 reply
DON CZARSKI [tm] 27,892 Sep 27, 2015 03:08 AM

Thanks for doing this ... Great tab as always

0 reply
ayreon77 21,833 Sep 27, 2015 06:33 AM

yea no prob don, always like doing solo's if there doable

guest
You may want to rate the tab now too:
select rating
Wanna post a correction for this tab? Suggest correction