Oops, an error
Loading. Please wait.

The Days Grew Longer For Love solo tab

153 views 1 this week
no commentswrite comment
1 2 3 4 5
x 5
add to favorites
×
Save as Personal and add changes to this tab that will be seen only by you. Learn more ›
×
You can save this tab as Personal to edit and correct it or add notes. All changes will be seen only by you. Learn more »
launch autoscroll
font size
0
reset
how to read this tab
guitar tuner
edit
Autoscroll
slow
fast
+/-
esc
set tempo
stop
---------------------------------------------------------------------------------------------------------------
                                          Artist - Andwellas Dream
                                         **************************
                                         Song - The Days Grew Longer
                                        *****************************
                                        Album - Love And Poetry (1969)   
                                       ********************************
                                            Tabbed By - Ayreon77
                                           **********************
---------------------------------------------------------------------------------------------------------------
Tuning = Standard


01:30
SOLO 1
*******                                    GUITAR 1
e|-----------------|--------------|-------|-----------------|--------------|-------|
B|-----------------|--------------|-------|-----------------|--------------|-------|
G|----------h------|--s-----------|-------|----------h------|--s-----------|-------|
D|-7~~-5-3-2-3-2~~-|-3\5-3--2-0-2-|-------|-7~~-5-3-2-3-2~~-|-3\5-3--2-0-2-|-------|
A|-----------------|--------------|-3-5-3-|-----------------|--------------|-3-5-3-|
E|-----------------|--------------|-------|-----------------|--------------|-------|
                                          |                                        |
                                          |GUITAR 2                                |
e|----------------------------------------|-----------------|--------------|-------|
B|----------------------------------------|-6~~-5----h------|--s-----------|-------|
G|----------------------------------------|-------7-5-7-5~~-|-7\9-7--7-7-6-|-7-6-7-|
D|----------------------------------------|-----------------|--------------|-------|
A|----------------------------------------|-----------------|--------------|-------|
E|----------------------------------------|-----------------|--------------|-------|


  GUITAR 1                                                          
e|------------------------|------------------------------------------------------|
B|------------------------|------s-----------------------------------------------|
G|--s-----------s---------|-----7\9-10---10---10-10-9---7--------h---------------|
D|-5\7-7-------7\10-------|-10----------------------------10---10-12--12---------|
A|--------10-8------10-10-|------------------------------------------------------|
E|------------------------|------------------------------------------------------|
 |                                                                               |
 |GUITAR 2                              hold                                     |
e|--s-----------s---------|-------------bend-10----------------------------------|
B|-5\6----5----6\8--------|--------b-13--|------13-10--b--b--b--b---p------------|
G|-----------7------------|-10-12-12----12------------12-12-12-12-12-10-12-10----|
D|------------------------|---------------------------------------------------12-|
A|------------------------|------------------------------------------------------|
E|------------------------|------------------------------------------------------|

  02:02
  GUITAR 1
e|--------------|-----------|---------------------------------------------------|-----------------------------|
B|--------------|------h----|--s--------h----------------------------s----------|-----------------h-----------|
G|-7-9-10-10~~~-|-9-7-7-9-7-|-9\10-9-7-7-9--7-6-7-7-7-7-7-7-7-7-7-7-7\9-9-9-9-9-|-10-10-10-9-7-5-5-7-7-7~~~~~-|
D|--------------|-----------|---------------------------------------------------|-----------------------------|
A|--------------|-----------|---------------------------------------------------|-----------------------------|
E|--------------|-----------|---------------------------------------------------|-----------------------------|
 | Due to there being more notes in guitar 2, there not lined up, but i,m sure it's self explanatory.         |
 |GUITAR 2                                                                                                    |
e|-------10----------------|-10-----------------------|-10--------------------------------|-------------------|
B|--b-10----13-10-----b--b-|----13-10--brp------------|----13-10--b-10-13--brp------------|-------------------|
G|-12-------------12-12-12-|----------12--10-12-10----|----------12-------12--10-12-10----|-------------------|
D|-------------------------|-----------------------12-|--------------------------------12-|-------------------|
A|-------------------------|--------------------------|-----------------------------------|-------------------|
E|-------------------------|--------------------------|-----------------------------------|-------------------|

  This is suppose to be lined up with above too, but too many notes so now it,s here, :)
  
GUITAR 2  b  b  b  b  b  b  b  b  b  b                                                    
e|-------10-10-10-10-10-10-10-10-10-10-|-10-8-10-8-10-8-10-8-10-8-10-|
B|-10-13-------------------------------|-----------------------------|
G|-------------------------------------|-----------------------------|
D|-------------------------------------|-----------------------------|
A|-------------------------------------|-----------------------------|
E|-------------------------------------|-----------------------------|

  Same too many note.
GUITAR 2              b  b  b  b  b 
e|-10--10--8----8-10-10-10-10-10-10-10-8-10-8------|--s---8-10-8----brp-----------------------|
B|-----------10-------------------------------10~~-|-8\10--------10-8--6-8-6------h-----------|
G|-------------------------------------------------|-------------------------7-5-5-7--7--7--7-|
D|-------------------------------------------------|------------------------------------------|
A|-------------------------------------------------|------------------------------------------|
E|-------------------------------------------------|------------------------------------------|


  02:24
  GUITAR 1
e|-------------------|---------------|-------|
B|-------------------|---------------|-------|
G|--s---------h------|--s------------|-------|
D|-5\7~~-5-3-2-3-2~~-|-3\5-3--2-0-2--|-------|
A|-------------------|---------------|-3-5-3-|
E|-------------------|---------------|-------|
 |                                           |
 |GUITAR 2                                   |
e|--s----------------|---------------|-------|
B|-5\6---6-5---------|----s----------|-------|
G|------------7--5~~-|-5-7\9-7-7-7-6-|-6-7---|
D|-------------------|---------------|-------|
A|-------------------|---------------|-------|
E|-------------------|---------------|-------|



-----------------------------------------------------------
03:02
SOLO 2
*******
  GUITAR 1
e|---------|------------------------------|-----------|-----------|----------------|-------------------------|
B|---------|--s---------------------------|-----------|------h----|----------------|------------s------------|
G|-7~~-7-7-|-7\9-9--9-9-7-9-7-6---6-7-7~~-|-7-9-10-10-|-9-7-5-7-5-|-7-7-9-7--7-7-6-|---6-7-7-7-7\------------|
D|---------|--------------------9---------|-----------|-----------|----------------|-9-----------------------|
A|---------|------------------------------|-----------|-----------|----------------|-------------------------|
E|---------|------------------------------|-----------|-----------|----------------|-------------------------|
 |  Same as SOLO 1 too many notes too line up, with guitar 1, so bare that in mind.                          |
 |GUITAR 2                                                                                                   |
 |                         b  b  b   p                                                                       |
e|--b--b----------------|-15-15-15-15-13----|---h------h------h----------------------------------------------|
B|-15-15-15-13-15-13-10-|----------------15-|-13-15--13-15--13-15--13---------------s---13-15-13-----br------|
G|----------------------|-------------------|-------------------------14-12-10-12-12\14----------14-12-12-10-|
D|----------------------|-------------------|----------------------------------------------------------------|
A|----------------------|-------------------|----------------------------------------------------------------|
E|----------------------|-------------------|----------------------------------------------------------------|

  GUITAR 2
e|--------|-----------------------------------------|
B|--h--p--|-------------------------13--rb----------|
G|-9-10-9-|----9-10-----10----10-12----12--10----10-|
D|--------|-12-------12----12-----------------12----|
A|--------|-----------------------------------------|
E|--------|-----------------------------------------|


03:24
  GUITAR 1
e|-----------------|----------------|-------|-----------------|----------------|-------|
B|-----------------|----------------|-------|-----------------|----------------|-------|
G|--s--------------|----------------|-------|--s--------------|----------------|-------|
D|-5\7-7~~-7-5-3-2-|-2-3-5-3--3-3-2-|-------|-5\7-7~~-7-5-3-2-|-2-3-5-3--3-3-2-|-------|
A|-----------------|----------------|-5-3-5-|-----------------|----------------|-5-3-5-|
E|-----------------|----------------|-------|-----------------|----------------|-------|
 |                                                                                     |
 |GUITAR 2                                                                             |
e|-------------------------------------------------------------------------------------|
B|--b--b--b---b-10--b---b-10--b---b--b--b----b---b--b-----b---b--b--b------------------|
G|-12-12-12--12----12--12----12--12-12-12---12--12-12----12--12-12-12------------------|
D|-------------------------------------------------------------------------------------|
A|-------------------------------------------------------------------------------------|
E|-------------------------------------------------------------------------------------|


  GUITAR 1
e|-----------------|----------------|-------------------------|
B|-----------------|----------------|-------------------------|
G|--s--------------|----------------|-------------------------|
D|-5\7-7~~-7-5-3-2-|-2-3-5-3--3-3-2-|-------------------------|
A|-----------------|----------------|-5-3-5-------------------|
E|-----------------|----------------|-------------------------|
 |                                                            |
 |GUITAR 2                                                    |
e|------------------------------------------------------------|
B|-It,s kinda hard to hear whats going on here.---------------|
G|----sounds like he-just continues bending ------------------|
D|-------the 12 fret, so just ad lib to the end and fade out.-|
A|------------------------------------------------------------|
E|------------------------------------------------------------|




ENJOY...........

            
            
Suggest correction
Creating personal tab
Creating personal tab
You can edit any tab online and save it as your Personal.

You can edit, replace or remove any tab part or add personal notes – all changes will be seen only by you.

Personal tabs can be accessed anytime from any device, even offline.
Learn more »
comments
print report bad tab
guest
You may want to rate the tab now too:
select rating
Wanna post a correction for this tab? Suggest correction