Oops, an error
Loading. Please wait.

Louder Than Your Love Tab

55 views 18 this week
no commentswrite comment
1 2 3 4 5
2 more votes to show rating
add to favorites
launch autoscroll
font size
0
reset
how to read this tab
guitar tuner
Autoscroll
slow
fast
+/-
esc
set tempo
stop
Help us to improve Ultimate-Guitar.com Take our survey!
×
Author
Difficulty
intermediate
Andy Black 
Louder Than your Love

Tuning: Standard EADGBe
NO CAPO 


[Intro]
e|--------------------------------------------------|
B|--------------------------------------------------|
G|-/9-9-7-7-5-5----/9-9-7-7-5-5---------------------|
D|---------------5--------------5-------------------|
A|--------------------------------------------------|
E|--------------------------------------------------|

e|---------------------------------------|
B|---------------------------------------|
G|--/9-9-7-7-5-5/10-9-9-9-9-9--7--5------|
D|---------------------------------------|
A|---------------------------------------|
E|---------------------------------------|     

e|--------------------------------------------------------------------------------|
B|-------------------------------------------------------/13-13-13-13-13-13-12-12-|
G|---/9-9-9-9-9-9-9/12-12-12-12-12-12-12-12/8-8-8-8-8-8---------------------------|
D|--------------------------------------------------------------------------------|
A|--------------------------------------------------------------------------------|
E|--------------------------------------------------------------------------------|


[Verse 1]
e|--------------------------------------------------------------------------|
B|--------------------------------------------------------------------------|
G|-------------------------------------5-5-5-5-5-5-5------------------------|
D|-7-7-7-7-7-7-7----5-5-5-5-5-5-5------5-5-5-5-5-5-5------3-3-3-3-3-3-3-----| x3
A|-7-7-7-7-7-7-7----5-5-5-5-5-5-5------3-3-3-3-3-3-3------3-3-3-3-3-3-3-----|
E|-5-5-5-5-5-5-5----3-3-3-3-3-3-3-------------------------1-1-1-1-1-1-1-----|


[Pre-Chorus]
e|--------------------------------------------------------------------------|
B|--------------------------------------------------------------------------|
G|-------------------------------------5-5-5-5-5-5-5-5-5-5-5-5-5-5----------|
D|-7-7-7-7-7-7-7----5-5-5-5-5-5-5------5-5-5-5-5-5-5-5-5-5-5-5-5-5----------|
A|-7-7-7-7-7-7-7----5-5-5-5-5-5-5------3-3-3-3-3-3-3-3-3-3-3-3-3-3----------|
E|-5-5-5-5-5-5-5----3-3-3-3-3-3-3-------------------------------------------|


[Chorus]
e|-------------------------------------------------------------------------------------|
B|-------------------------------------------------------------------------------------|
G|-5-5-5-5-5-5-5-5-5-------------------------------------------------------------------| X2
D|-5-5-5-5-5-5-5-5-5---5-5-5-5-5-5-5-5-5----3-3-3-3-3-3-3-3-3---6-6-6-6-6-6---5-5-5-5-5|
A|-3-3-3-3-3-3-3-3-3---5-5-5-5-5-5-5-5-5----3-3-3-3-3-3-3-3-3---6-6-6-6-6-6---5-5-5-5-5|
E|---------------------3-3-3-3-3-3-3-3-3----1-1-1-1-1-1-1-1-1---4-4-4-4-4-4---3-3-3-3-3|


[Intro/Interlude]
e|--------------------------------------------------|
B|--------------------------------------------------|
G|-/9-9-7-7-5-5----/9-9-7-7-5-5---------------------|
D|---------------5--------------5-------------------|
A|--------------------------------------------------|
E|--------------------------------------------------|

e|---------------------------------------|
B|---------------------------------------|
G|--/9-9-7-7-5-5/10-9-9-9-9-9--7--5------|
D|---------------------------------------|
A|---------------------------------------|
E|---------------------------------------|     

e|--------------------------------------------------------------------------------|
B|-------------------------------------------------------/13-13-13-13-13-13-12-12-|
G|---/9-9-9-9-9-9-9/12-12-12-12-12-12-12-12/8-8-8-8-8-8---------------------------|
D|--------------------------------------------------------------------------------|
A|--------------------------------------------------------------------------------|
E|--------------------------------------------------------------------------------|


[Verse 2]
e|--------------------------------------------------------------------------|
B|--------------------------------------------------------------------------|
G|-------------------------------------5-5-5-5-5-5-5------------------------|
D|-7-7-7-7-7-7-7----5-5-5-5-5-5-5------5-5-5-5-5-5-5------3-3-3-3-3-3-3-----| x3
A|-7-7-7-7-7-7-7----5-5-5-5-5-5-5------3-3-3-3-3-3-3------3-3-3-3-3-3-3-----|
E|-5-5-5-5-5-5-5----3-3-3-3-3-3-3-------------------------1-1-1-1-1-1-1-----|


[Pre-Chorus]
e|--------------------------------------------------------------------------|
B|--------------------------------------------------------------------------|
G|-------------------------------------5-5-5-5-5-5-5-5-5-5-5-5-5-5----------|
D|-7-7-7-7-7-7-7----5-5-5-5-5-5-5------5-5-5-5-5-5-5-5-5-5-5-5-5-5----------|
A|-7-7-7-7-7-7-7----5-5-5-5-5-5-5------3-3-3-3-3-3-3-3-3-3-3-3-3-3----------|
E|-5-5-5-5-5-5-5----3-3-3-3-3-3-3-------------------------------------------|


[Chorus]
e|-------------------------------------------------------------------------------------|
B|-------------------------------------------------------------------------------------|
G|-5-5-5-5-5-5-5-5-5-------------------------------------------------------------------| X2
D|-5-5-5-5-5-5-5-5-5---5-5-5-5-5-5-5-5-5----3-3-3-3-3-3-3-3-3---6-6-6-6-6-6---5-5-5-5-5|
A|-3-3-3-3-3-3-3-3-3---5-5-5-5-5-5-5-5-5----3-3-3-3-3-3-3-3-3---6-6-6-6-6-6---5-5-5-5-5|
E|---------------------3-3-3-3-3-3-3-3-3----1-1-1-1-1-1-1-1-1---4-4-4-4-4-4---3-3-3-3-3|

e|--------------------------|
B|--------------------------|
G|-5-5-5-5-5-5-5-5-5--------| X2
D|-5-5-5-5-5-5-5-5-5--------|
A|-3-3-3-3-3-3-3-3-3--------|
E|--------------------------|
Now I'll take a stand
I won't walk away
I'm gonna find a way, let go of all of these feelings
Save me


[Chorus]
e|-------------------------------------------------------------------------------------|
B|-------------------------------------------------------------------------------------|
G|-5-5-5-5-5-5-5-5-5-------------------------------------------------------------------| X3
D|-5-5-5-5-5-5-5-5-5---5-5-5-5-5-5-5-5-5----3-3-3-3-3-3-3-3-3---6-6-6-6-6-6---5-5-5-5-5|
A|-3-3-3-3-3-3-3-3-3---5-5-5-5-5-5-5-5-5----3-3-3-3-3-3-3-3-3---6-6-6-6-6-6---5-5-5-5-5|
E|---------------------3-3-3-3-3-3-3-3-3----1-1-1-1-1-1-1-1-1---4-4-4-4-4-4---3-3-3-3-3|


[End]
e|-------------------------------------------------------------------------------------|
B|-------------------------------------------------------------------------------------|
G|-5-5-5-5-5-5\------------------------------------------------------------------------| X3
D|-5-5-5-5-5-5\------------------------------------------------------------------------|
A|-3-3-3-3-3-3\-----slide down---------------------------------------------------------|
E|-------------------------------------------------------------------------------------|



************************************

| /  Slide up
| \  Slide down

************************************
Suggest correction
Give kudos to tab author, rate the tab!
1 2 3 4 5
comments
print report bad tab
guest
You may want to rate the tab now too:
select rating
Wanna post a correction for this tab? Suggest correction