Oops, an error
Loading. Please wait.

Stay Alive tab

version 1
version 1

Whole song

850 views 6 this week
no commentswrite comment
1 2 3 4 5
2 more votes to show rating
add to favorites
×
Save as Personal and add changes to this tab that will be seen only by you. Learn more ›
×
You can save this tab as Personal to edit and correct it or add notes. All changes will be seen only by you. Learn more »
launch autoscroll
font size
0
reset
how to read this tab
guitar tuner
edit
Autoscroll
slow
fast
+/-
esc
set tempo
stop
STAY ALIVE
TUNING DROP C#

[INTRO]

D#|--11-11-11-11--11-11-11-11--11-11-11-11--13-13-13-13-13------|
A#|--11-11-11-11--11-11-11-11--11-11-11-11--11-11-11-11-11------|
F#|-------------------------------------------------------------|
C#|-------------------------------------------------------------|
G#|-------------------------------------------------------------|
C#|-------------------------------------------------------------|

D#|--11-11-11-11--11-11-11-11--11-11-11-11--16-16-16-15-15------|
A#|--11-11-11-11--11-11-11-11--11-11-11-11--11-11-11-11-11------|
F#|-------------------------------------------------------------|
C#|-------------------------------------------------------------|
G#|-------------------------------------------------------------|
C#|-------------------------------------------------------------|


[VERSE 1]

D#|-----------------------------------------------------|
A#|-----------------------------------------------------|
F#|-----------------------------------------------------|
C#|----1---1---3---3------------------------------------|
G#|--3---3---1---1---------------6---6---6---6----------|
C#|----------------------------6---6---6---6------------|
     YOUR THOUGHTS BECOME YOUR ENEMIES           

D#|-----------------------------------------------------|
A#|-----------------------------------------------------|
F#|-----------------------------------------------------|
C#|----1---1---3---3------------------------------------|
G#|--3---3---1---1--------------------6---6---6---6-----|
C#|---------------------------------6---6---6---6-------|
     WHEN YOU’RE LOCKED INSIDE THIS CAGE

D#|-------------------------------------------|
A#|-------------------------------------------|
F#|-------------------------------------------|
C#|----1---1---3---3--------------------------|
G#|--3---3---1---1----------6---6---6---6-----|
C#|-----------------------6---6---6---6-------|
     LIFE CAN FEEL        DEAD TO ME

D#|--------------------------------------------|
A#|--------------------------------------------|
F#|--------------------------------------------|
C#|----1---1---3---3---------------------------|
G#|--3---3---1---1-----------6---6---6---6-----|
C#|------------------------6---6---6---6-------|
    AND ALL THAT’S LEFT IS RAGE

D#|-----------------------------------------------------------------------------|
A#|-----------------------------------------------------------------------------|
F#|-----------------------------------------------------------------------------|
C#|--6-6-6-6--6-6-6-6----8-8-8-8--8-8-8-8--5-5-5-5--5-5-5-5--6-6-6-6--6-6-6-6---|
G#|--6-6-6-6--6-6-6-6----8-8-8-8--8-8-8-8--5-5-5-5--5-5-5-5--6-6-6-6--6-6-6-6---|
C#|--6-6-6-6--6-6-6-6----8-8-8-8--8-8-8-8--5-5-5-5--5-5-5-5--6-6-6-6--6-6-6-6---|
     REGRETS FOR ALL THE TIME WE WASTED    THINKING OF OUR   SELVES

D#|-----------------------------------------------------------------------------|
A#|-----------------------------------------------------------------------------|
F#|-----------------------------------------------------------------------------|
C#|--6-6-6-6--6-6-6-6----8-8-8-8--8-8-8-8--5-5-5-5--5-5-5-5--6-6-6-6--6-6-6-6---|
G#|--6-6-6-6--6-6-6-6----8-8-8-8--8-8-8-8--5-5-5-5--5-5-5-5--6-6-6-6--6-6-6-6---|
C#|--6-6-6-6--6-6-6-6----8-8-8-8--8-8-8-8--5-5-5-5--5-5-5-5--6-6-6-6--6-6-6-6---|
     HOLDING ONTO PAIN   YOU TASTE IT      LIVING IN THIS    HELL


[PRE CHORUS]

D#|--------------------------------------------------------------------|
A#|--------------------------------------------------------------------|
F#|-------5-------------3-----------------*-*-*-*--*-*-*-*-------------|
C#|-------5-------------3-----------------5-5-5-5--5-5-5-5--6-6-6-6----|
G#|-------3-------------1-----------------5-5-5-5--5-5-5-5--6-6-6-6----|
C#|---------------------------------------5-5-5-5--5-5-5-5--6-6-6-6----|
    DON’T WANNA GO BACK HOME TONIGHT SO I DRIVE THIS ROAD   ALONE


[CHORUS]

D#|------------------------------------------------------------|
A#|------------------------------------------------------------|
F#|--12-12-12-12--12-12-12-12--10-10-10-10--10-10-10-10--------|
C#|------------------------------------------------------------|
G#|--10-10-10-10--10-10-10-10---8--8--8--8---8--8--8--8--------|
C#|------------------------------------------------------------|
     STAY ALIVE                FOR THE THE GOOD TIMES

D#|------------------------------------------------------------|
A#|------------------------------------------------------------|
F#|--12-12-12-12--12-12-12-12---8-8-8-8--8-8-8-8---------------|
C#|------------------------------------------------------------|
G#|--10-10-10-10--10-10-10-10---6-6-6-6--6-6-6-6---------------|
C#|------------------------------------------------------------|
     STAY ALIVE THROUGH THE     BAD

D#|----------------------------------------------------------------|
A#|----------------------------------------------------------------|
F#|--8-8-8-8--8-8-8-8----------------10-10-10-10--10-10-10-10------|
C#|----------------------------------------------------------------|
G#|--6-6-6-6--6-6-6-6-----------------8--8--8--8---8--8--8--8------|
C#|----------------------------------------------------------------|
     STAY ALIVE FOR THE HOPES AND THE FEARS AND THE DREAMS
    
D#|------------------------------------------------------------|
A#|------------------------------------------------------------|
F#|--12-12-12-12--12-12-12-12---8-8-8-8--8-8-8-8---------------|
C#|------------------------------------------------------------|
G#|--10-10-10-10--10-10-10-10---6-6-6-6--6-6-6-6---------------|
C#|------------------------------------------------------------|
     THE BEST THAT WE EVER      HAD

D#|----------------------------------------------------------------|
A#|----------------------------------------------------------------|
F#|--8-8-8-8--8-8-8-8---------10-10-10-10--10-10-10-10-------------|
C#|----------------------------------------------------------------|
G#|--6-6-6-6--6-6-6-6----------8--8--8--8---8--8--8--8-------------|
C#|----------------------------------------------------------------|
     I KEEP TELLING MYSELF     I CAN TAKE YOU FROM THIS

D#|------------------------------------------------------------|
A#|------------------------------------------------------------|
F#|--12-12-12-12--12-12-12-12---8-8-8-8--8-8-8-8---------------|
C#|------------------------------------------------------------|
G#|--10-10-10-10--10-10-10-10---6-6-6-6--6-6-6-6---------------|
C#|------------------------------------------------------------|
     GOD FORSAKEN               PLACE

D#|------------------------------------------------------------|
A#|------------------------------------------------------------|
F#|--12-12-12-12--12-12-12-12--10-10-10-10--10-10-10-10--------|
C#|------------------------------------------------------------|
G#|--10-10-10-10--10-10-10-10---8--8--8--8---8--8--8--8--------|
C#|------------------------------------------------------------|
     STAY ALIVE                FOR THE THE GOOD TIMES

D#|------------------------------------------------------------|
A#|------------------------------------------------------------|
F#|--12-12-12-12--12-12-12-12---8-8-8-8--8-8-8-8---------------|
C#|------------------------------------------------------------|
G#|--10-10-10-10--10-10-10-10---6-6-6-6--6-6-6-6---------------|
C#|------------------------------------------------------------|
     STAY ALIVE THROUGH THE     BAD

D#|------------------------------------------------------------|
A#|------------------------------------------------------------|
F#|--12-12-12-12----10-10-10-10-----12-12-12-12---8-8-8-8------|
C#|------------------------------------------------------------|
G#|--10-10-10-10-----8--8--8--8-----10-10-10-10---6-6-6-6------|
C#|------------------------------------------------------------|
     OH OH OH WHOA   OH OH OH WHOA  OH OH OH WHOA   OH

D#|------------------------------------------------------------|
A#|------------------------------------------------------------|
F#|--12-12-12-12----10-10-10-10-----12-12-12-12---8-8-8-8------|
C#|------------------------------------------------------------|
G#|--10-10-10-10-----8--8--8--8-----10-10-10-10---6-6-6-6------|
C#|------------------------------------------------------------|
     OH OH OH WHOA   OH OH OH WHOA  OH OH OH WHOA   OH


[VERSE 2]

D#|-----------------------------------------------------|
A#|-----------------------------------------------------|
F#|-----------------------------------------------------|
C#|----1---1---3---3------------------------------------|
G#|--3---3---1---1---------------6---6---6---6----------|
C#|----------------------------6---6---6---6------------|
     FEAR CONTROLS             EVERYTHING

D#|-----------------------------------------------------|
A#|-----------------------------------------------------|
F#|-----------------------------------------------------|
C#|----1---1---3---3------------------------------------|
G#|--3---3---1---1---------------6---6---6---6----------|
C#|----------------------------6---6---6---6------------|
     NEVER LETS YOU TURN       THE PAGE

D#|-----------------------------------------------------|
A#|-----------------------------------------------------|
F#|-----------------------------------------------------|
C#|----1---1---3---3------------------------------------|
G#|--3---3---1---1---------------6---6---6---6----------|
C#|----------------------------6---6---6---6------------|
     YOU END UP ONLY           SETTLING 

D#|-----------------------------------------------------|
A#|-----------------------------------------------------|
F#|-----------------------------------------------------|
C#|----1---1---3---3------------------------------------|
G#|--3---3---1---1---------------6---6---6---6----------|
C#|----------------------------6---6---6---6------------|
     FOR WHEN WE BOTH FELT     SANE

D#|------------------------------------------------------------------------------|
A#|------------------------------------------------------------------------------|
F#|------------------------------------------------------------------------------|
C#|--6-6-6-6--6-6-6-6----8-8-8-8--8-8-8-8---5-5-5-5--5-5-5-5--6-6-6-6--6-6-6-6---|
G#|--6-6-6-6--6-6-6-6----8-8-8-8--8-8-8-8---5-5-5-5--5-5-5-5--6-6-6-6--6-6-6-6---|
C#|--6-6-6-6--6-6-6-6----8-8-8-8--8-8-8-8---5-5-5-5--5-5-5-5--6-6-6-6--6-6-6-6---|
     REACHING OUT FOR    SOMETHING THAT YOU CAN’T QUITE HOLD ONTO

D#|-----------------------------------------------------------------------------------|
A#|-----------------------------------------------------------------------------------|
F#|-----------------------------------------------------------------------------------|
C#|--6-6-6-6--6-6-6-6--8-8-8-8--8-8-8-8-----------5-5-5-5--5-5-5-5--6-6-6-6--6-6-6-6--|
G#|--6-6-6-6--6-6-6-6--8-8-8-8--8-8-8-8-----------5-5-5-5--5-5-5-5--6-6-6-6--6-6-6-6--|
C#|--6-6-6-6--6-6-6-6--8-8-8-8--8-8-8-8-----------5-5-5-5--5-5-5-5--6-6-6-6--6-6-6-6--|
     SAY GOODBYE AND   STARTING OVER WHEN THERE’S NOTHING LEFT FOR  YOU


[PRE CHORUS]

D#|--------------------------------------------------------------------|
A#|--------------------------------------------------------------------|
F#|-------5-------------3-----------------*-*-*-*--*-*-*-*-------------|
C#|-------5-------------3-----------------5-5-5-5--5-5-5-5--6-6-6-6----|
G#|-------3-------------1-----------------5-5-5-5--5-5-5-5--6-6-6-6----|
C#|---------------------------------------5-5-5-5--5-5-5-5--6-6-6-6----|
    DON’T WANNA GO BACK HOME TONIGHT SO I DRIVE THIS ROAD   ALONE


[CHORUS]

D#|------------------------------------------------------------|
A#|------------------------------------------------------------|
F#|--12-12-12-12--12-12-12-12--10-10-10-10--10-10-10-10--------|
C#|------------------------------------------------------------|
G#|--10-10-10-10--10-10-10-10---8--8--8--8---8--8--8--8--------|
C#|------------------------------------------------------------|
     STAY ALIVE                FOR THE THE GOOD TIMES

D#|------------------------------------------------------------|
A#|------------------------------------------------------------|
F#|--12-12-12-12--12-12-12-12---8-8-8-8--8-8-8-8---------------|
C#|------------------------------------------------------------|
G#|--10-10-10-10--10-10-10-10---6-6-6-6--6-6-6-6---------------|
C#|------------------------------------------------------------|
     STAY ALIVE THROUGH THE     BAD

D#|----------------------------------------------------------------|
A#|----------------------------------------------------------------|
F#|--8-8-8-8--8-8-8-8----------------10-10-10-10--10-10-10-10------|
C#|----------------------------------------------------------------|
G#|--6-6-6-6--6-6-6-6-----------------8--8--8--8---8--8--8--8------|
C#|----------------------------------------------------------------|
     STAY ALIVE FOR THE HOPES AND THE FEARS AND THE DREAMS
    
D#|------------------------------------------------------------|
A#|------------------------------------------------------------|
F#|--12-12-12-12--12-12-12-12---8-8-8-8--8-8-8-8---------------|
C#|------------------------------------------------------------|
G#|--10-10-10-10--10-10-10-10---6-6-6-6--6-6-6-6---------------|
C#|------------------------------------------------------------|
     THE BEST THAT WE EVER      HAD

D#|----------------------------------------------------------------|
A#|----------------------------------------------------------------|
F#|--8-8-8-8--8-8-8-8---------10-10-10-10--10-10-10-10-------------|
C#|----------------------------------------------------------------|
G#|--6-6-6-6--6-6-6-6----------8--8--8--8---8--8--8--8-------------|
C#|----------------------------------------------------------------|
     I KEEP TELLING MYSELF     I CAN TAKE YOU FROM THIS

D#|------------------------------------------------------------|
A#|------------------------------------------------------------|
F#|--12-12-12-12--12-12-12-12---8-8-8-8--8-8-8-8---------------|
C#|------------------------------------------------------------|
G#|--10-10-10-10--10-10-10-10---6-6-6-6--6-6-6-6---------------|
C#|------------------------------------------------------------|
     GOD FORSAKEN               PLACE

D#|------------------------------------------------------------|
A#|------------------------------------------------------------|
F#|--12-12-12-12--12-12-12-12--10-10-10-10--10-10-10-10--------|
C#|------------------------------------------------------------|
G#|--10-10-10-10--10-10-10-10---8--8--8--8---8--8--8--8--------|
C#|------------------------------------------------------------|
     STAY ALIVE                FOR THE THE GOOD TIMES

D#|------------------------------------------------------------|
A#|------------------------------------------------------------|
F#|--12-12-12-12--12-12-12-12---8-8-8-8--8-8-8-8---------------|
C#|------------------------------------------------------------|
G#|--10-10-10-10--10-10-10-10---6-6-6-6--6-6-6-6---------------|
C#|------------------------------------------------------------|
     STAY ALIVE THROUGH THE     BAD


[BRIDGE]

D#|-------8---------8--------------6--------6-----------|
A#|-----------------------------------------------------|
F#|--5-5----5-5---5---5-5--5---3-3---3-3--3---3-3--3----|
C#|-----------------------------------------------------|
G#|-----------------------------------------------------|
C#|-----------------------------------------------------|

D#|-------11---------11---------------8--------8----------|
A#|-------------------------------------------------------|
F#|--8-8-----8-8---8----8-8--8---5-5----5-5--5----5-5--5--|
C#|-------------------------------------------------------|
G#|-------------------------------------------------------|
C#|-------------------------------------------------------|
    I KEEP TELLING MYSELF I CAN TAKE YOU FROM THIS

D#|-------8---------8--------------6--------6--------------------------------|
A#|--------------------------------------------------------------------------|
F#|--5-5----5-5---5---5-5--5---3-3---3-3--3---3-3--3----12-12-12---8-8-8-----|
C#|--------------------------------------------------------------------------|
G#|-----------------------------------------------------10-10-10---6-6-6-----|
C#|--------------------------------------------------------------------------|
    GOD FORSAKEN                                        LIFE

N.C.
STAY ALIVE FOR THE GOOD TIME STAY ALIVE FOR THE BAD


[CHORUS]

D#|----------------------------------------------------------------|
A#|----------------------------------------------------------------|
F#|--8-8-8-8--8-8-8-8----------------10-10-10-10--10-10-10-10------|
C#|----------------------------------------------------------------|
G#|--6-6-6-6--6-6-6-6-----------------8--8--8--8---8--8--8--8------|
C#|----------------------------------------------------------------|
     STAY ALIVE FOR THE HOPES AND THE FEARS AND THE DREAMS
    
D#|------------------------------------------------------------|
A#|------------------------------------------------------------|
F#|--12-12-12-12--12-12-12-12---8-8-8-8--8-8-8-8---------------|
C#|------------------------------------------------------------|
G#|--10-10-10-10--10-10-10-10---6-6-6-6--6-6-6-6---------------|
C#|------------------------------------------------------------|
     THE BEST THAT WE EVER      HAD

D#|----------------------------------------------------------------|
A#|----------------------------------------------------------------|
F#|--8-8-8-8--8-8-8-8---------10-10-10-10--10-10-10-10-------------|
C#|----------------------------------------------------------------|
G#|--6-6-6-6--6-6-6-6----------8--8--8--8---8--8--8--8-------------|
C#|----------------------------------------------------------------|
     I KEEP TELLING MYSELF     I CAN TAKE YOU FROM THIS

D#|------------------------------------------------------------|
A#|------------------------------------------------------------|
F#|--12-12-12-12--12-12-12-12---8-8-8-8--8-8-8-8---------------|
C#|------------------------------------------------------------|
G#|--10-10-10-10--10-10-10-10---6-6-6-6--6-6-6-6---------------|
C#|------------------------------------------------------------|
     GOD FORSAKEN               PLACE

D#|------------------------------------------------------------|
A#|------------------------------------------------------------|
F#|--12-12-12-12--12-12-12-12--10-10-10-10--10-10-10-10--------|
C#|------------------------------------------------------------|
G#|--10-10-10-10--10-10-10-10---8--8--8--8---8--8--8--8--------|
C#|------------------------------------------------------------|
     STAY ALIVE                FOR THE THE GOOD TIMES

D#|------------------------------------------------------------|
A#|------------------------------------------------------------|
F#|--12-12-12-12--12-12-12-12---8-8-8-8--8-8-8-8---------------|
C#|------------------------------------------------------------|
G#|--10-10-10-10--10-10-10-10---6-6-6-6--6-6-6-6---------------|
C#|------------------------------------------------------------|
     STAY ALIVE THROUGH THE     BAD

D#|------------------------------------------------------------|
A#|------------------------------------------------------------|
F#|--12-12-12-12----10-10-10-10-----12-12-12-12---8-8-8-8------|
C#|------------------------------------------------------------|
G#|--10-10-10-10-----8--8--8--8-----10-10-10-10---6-6-6-6------|
C#|------------------------------------------------------------|
     OH OH OH WHOA   OH OH OH WHOA  OH OH OH WHOA   OH     STAY ALIVE

D#|--------------------------------------------------------------|
A#|--------------------------------------------------------------|
F#|--12-12-12-12----10-10-10-10-----12-12-12-12---8-8-8--8-8-8---|
C#|--------------------------------------------------------------|
G#|--10-10-10-10-----8--8--8--8-----10-10-10-10---6-6-6--6-6-6---|
C#|--------------------------------------------------------------|
     OH OH OH WHOA   OH OH OH WHOA  OH OH OH WHOA   OH
Suggest correction
Creating personal tab
Creating personal tab
You can edit any tab online and save it as your Personal.

You can edit, replace or remove any tab part or add personal notes – all changes will be seen only by you.

Personal tabs can be accessed anytime from any device, even offline.
Learn more »
Give kudos to tab author, rate the tab!
1 2 3 4 5
comments
print report bad tab
guest
You may want to rate the tab now too:
select rating
Wanna post a correction for this tab? Suggest correction