Oops, an error
Loading. Please wait.

We Dont Have To Dance tab

5,143 views 30 this week
no commentswrite comment
1 2 3 4 5
x 4
add to favorites
×
Save as Personal and add changes to this tab that will be seen only by you. Learn more ›
×
You can save this tab as Personal to edit and correct it or add notes. All changes will be seen only by you. Learn more »
launch autoscroll
font size
0
reset
how to read this tab
guitar tuner
edit
Autoscroll
slow
fast
+/-
esc
set tempo
stop

[Verse]

C#|--6-6----6-6----------6-6----6-6----------------|
G#|--7-7----7-7----------9-7----9-7----------------|
E |--8-8----8-8----------8-8----8-8----------------|
B |------------------------------------------------|
F#|------------------------------------------------|
B |------------------------------------------------|
    RECORD SCRATCH STEVE MILLER BAND

C#|--6-6----6-6----------6-6----6-6----------------|
G#|--7-7----7-7----------9-7----9-7----------------|
E |--8-8----8-8----------8-8----8-8----------------|
B |------------------------------------------------|
F#|------------------------------------------------|
B |------------------------------------------------|
    TATTOOED NECKS AND TATTOOED HANDS

C#|---6-6--6-6-------6-6--6-6-------------6-6--6-6---6-6--6-6---|
G#|---7-7--7-7-------9-7--9-7-------------7-7--7-7---9-7--9-7---|
E |---8-8--8-8-------8-8--8-8-------------8-8--8-8---8-8--8-8---|
B |-------------------------------------------------------------|
F#|-------------------------------------------------------------|
B |-------------------------------------------------------------|
   OH HOW DON’T YOU DROWN IN A RAIN STORM

C#|--6-6----6-6----------6-6----6-6----------------|
G#|--7-7----7-7----------9-7----9-7----------------|
E |--8-8----8-8----------8-8----8-8----------------|
B |------------------------------------------------|
F#|------------------------------------------------|
B |------------------------------------------------|
   FRESH REGRETS         VODKA SWEATS

C#|-----6-6----6-6-----------6-6------6-6----------|
G#|-----7-7----7-7-----------9-7------9-7----------|
E |-----8-8----8-8-----------8-8------8-8----------|
B |------------------------------------------------|
F#|------------------------------------------------|
B |------------------------------------------------|
   THE SUN IS DOWN AND WERE BOUND TO GET 

C#|--6-6------6-6-----6-6--6-6-----------6-6--6-6---6-6--6-6----|
G#|--7-7------7-7-----9-7--9-7-----------7-7--7-7---9-7--9-7----|
E |--8-8------8-8-----8-8--8-8-----------8-8--8-8---8-8--8-8----|
B |-------------------------------------------------------------|
F#|-------------------------------------------------------------|
B |-------------------------------------------------------------|
    EXHAUSTED AND SO FAR FROM THE SHORE


[Pre-Chorus]

C#|-----------------------------------------------------------------------------------|
G#|-----------------------------------------------------------------------------------|
E |--4-4-4-4--4-4-4-4--4-4-4-4--4-4-4-4--8-8-8-8--8-8-8-8--11-11-11-11--11-11-11-11---|
B |--4-4-4-4--4-4-4-4--4-4-4-4--4-4-4-4--8-8-8-8--8-8-8-8--11-11-11-11--11-11-11-11---|
F#|--2-2-2-2--2-2-2-2--2-2-2-2--2-2-2-2--6-6-6-6--6-6-6-6---9--9--9--9---9--9--9--9---|
B |-----------------------------------------------------------------------------------|
    YOU’RE NEVER       I’M A HAZARD TO   I’LL BREAK IT TO  THIS IS HELL THIS IS HELL
    GONNA GET IT       MYSELF            EASY

C#|-------------------------------------------------------------|
G#|-------------------------------------------------------------|
E |--4-4-4-4--4-4-4-4--4-4-4-4--4-4-4-4--8-8-8-8--8-8-8-8-------|
B |--4-4-4-4--4-4-4-4--4-4-4-4--4-4-4-4--8-8-8-8--8-8-8-8-------|
F#|--2-2-2-2--2-2-2-2--2-2-2-2--2-2-2-2--6-6-6-6--6-6-6-6-------|
B |-------------------------------------------------------------|
    YOU’RE LOOKIN      YOU THINK I’M     THIS IS HELL YES
    AND WHISPERING     SOMEONE ELSE      LITERAL HELL


[Chorus]

C#|------------------------------------------------------------------------------------|
G#|------------------------------------------------------------------------------------|
E |--4-4-4-4--4-4-4-4--4-4-4-4--4-4-4-4---8-8-8-8--8-8-8-8--11-11-11-11--11-11-11-11---|
B |--4-4-4-4--4-4-4-4--4-4-4-4--4-4-4-4---8-8-8-8--8-8-8-8--11-11-11-11--11-11-11-11---|
F#|--2-2-2-2--2-2-2-2--2-2-2-2--2-2-2-2---6-6-6-6--6-6-6-6---9--9--9--9---9--9--9--9---|
B |------------------------------------------------------------------------------------|
    WE DON’T  WE DON’T DANCE    WE DON’T SMILE WE DON’T     FRIENDS IT’S SO NICE TO
    HAVE TO   HAVE TO           HAVE TO  HAVE TO MAKE
    TALK 

C#|------------------------------------------------------------------------------------|
G#|------------------------------------------------------------------------------------|
E |--4-4-4-4--4-4-4-4--4-4-4-4--4-4-4-4---8-8-8-8--8-8-8-8--11-11-11-11--11-11-11-11---|
B |--4-4-4-4--4-4-4-4--4-4-4-4--4-4-4-4---8-8-8-8--8-8-8-8--11-11-11-11--11-11-11-11---|
F#|--2-2-2-2--2-2-2-2--2-2-2-2--2-2-2-2---6-6-6-6--6-6-6-6---9--9--9--9---9--9--9--9---|
B |------------------------------------------------------------------------------------|
    MEET YOU LET’S     WE DON’T HAVE TO   TALK WE DON’T     DANCE WE DON’T HAVE TO
    NEVER MEET AGAIN                      HAVE TO           DANCE

C#|--6-6---6-6---6-6--------|
G#|--7-7---9-7---9-7--------|
E |--8-8---8-8---8-8--------|
B |-------------------------|
F#|-------------------------|
B |-------------------------|


[Verse]

C#|-----------------------------------------------------------------------------------|
G#|-----------------------------------------------------------------------------------|
E |--4-4-4-4--4-4-4-4--4-4-4-4--4-4-4-4--8-8-8-8--8-8-8-8--11-11-11-11--11-11-11-11---|
B |--4-4-4-4--4-4-4-4--4-4-4-4--4-4-4-4--8-8-8-8--8-8-8-8--11-11-11-11--11-11-11-11---|
F#|--2-2-2-2--2-2-2-2--2-2-2-2--2-2-2-2--6-6-6-6--6-6-6-6---9--9--9--9---9--9--9--9---|
B |-----------------------------------------------------------------------------------|
    BOTTLE SMASH      I RAISE MY HAND    HOW CAN YOU ALL   EVEN STAND IT

C#|---------------------------------------------------------------------------|
G#|---------------------------------------------------------------------------|
E |--4-4-4-4--4-4-4-4--4-4-4-4--4-4-4-4--8-8-8-8--8-8-8-8---------------------|
B |--4-4-4-4--4-4-4-4--4-4-4-4--4-4-4-4--8-8-8-8--8-8-8-8---------------------|
F#|--2-2-2-2--2-2-2-2--2-2-2-2--2-2-2-2--6-6-6-6--6-6-6-6----1-2-1------------|
B |--------------------------------------------------------4--------3-4-------|
    WHY IS THERE       JOY IN THIS       POISON

C#|-----------------------------------------------------------------------------------|
G#|-----------------------------------------------------------------------------------|
E |--4-4-4-4--4-4-4-4--4-4-4-4--4-4-4-4--8-8-8-8--8-8-8-8--11-11-11-11--11-11-11-11---|
B |--4-4-4-4--4-4-4-4--4-4-4-4--4-4-4-4--8-8-8-8--8-8-8-8--11-11-11-11--11-11-11-11---|
F#|--2-2-2-2--2-2-2-2--2-2-2-2--2-2-2-2--6-6-6-6--6-6-6-6---9--9--9--9---9--9--9--9---|
B |-----------------------------------------------------------------------------------|
    FAKING SMILES AND CONFIDENCE         DRIVING MILES TO   CAPTURE THIS

C#|-----------------------------------------------------------------------------------|
G#|-----------------------------------------------------------------------------------|
E |--4-4-4-4--4-4-4-4--4-4-4-4--4-4-4-4--8-8-8-8--8-8-8-8--11-11-11-11--11-11-11-11---|
B |--4-4-4-4--4-4-4-4--4-4-4-4--4-4-4-4--8-8-8-8--8-8-8-8--11-11-11-11--11-11-11-11---|
F#|--2-2-2-2--2-2-2-2--2-2-2-2--2-2-2-2--6-6-6-6--6-6-6-6---9--9--9--9---9--9--9--9---|
B |-----------------------------------------------------------------------------------|
    EXCITEMENT I CAN’T TAKE ANY          MORE               OH, OH


[Pre-Chorus]

C#|-----------------------------------------------------------------------------------|
G#|-----------------------------------------------------------------------------------|
E |--4-4-4-4--4-4-4-4--4-4-4-4--4-4-4-4--8-8-8-8--8-8-8-8--11-11-11-11--11-11-11-11---|
B |--4-4-4-4--4-4-4-4--4-4-4-4--4-4-4-4--8-8-8-8--8-8-8-8--11-11-11-11--11-11-11-11---|
F#|--2-2-2-2--2-2-2-2--2-2-2-2--2-2-2-2--6-6-6-6--6-6-6-6---9--9--9--9---9--9--9--9---|
B |-----------------------------------------------------------------------------------|
    YOU’RE NEVER       I’M A HAZARD TO   I’LL BREAK IT TO  THIS IS HELL THIS IS HELL
    GONNA GET IT       MYSELF            EASY

C#|-------------------------------------------------------------|
G#|-------------------------------------------------------------|
E |--4-4-4-4--4-4-4-4--4-4-4-4--4-4-4-4--8-8-8-8--8-8-8-8-------|
B |--4-4-4-4--4-4-4-4--4-4-4-4--4-4-4-4--8-8-8-8--8-8-8-8-------|
F#|--2-2-2-2--2-2-2-2--2-2-2-2--2-2-2-2--6-6-6-6--6-6-6-6-------|
B |-------------------------------------------------------------|
    YOU’RE LOOKIN      YOU THINK I’M     THIS IS HELL YES
    AND WHISPERING     SOMEONE ELSE      I’ AM IN HELL


[Chorus]

C#|------------------------------------------------------------------------------------|
G#|------------------------------------------------------------------------------------|
E |--4-4-4-4--4-4-4-4--4-4-4-4--4-4-4-4---8-8-8-8--8-8-8-8--11-11-11-11--11-11-11-11---|
B |--4-4-4-4--4-4-4-4--4-4-4-4--4-4-4-4---8-8-8-8--8-8-8-8--11-11-11-11--11-11-11-11---|
F#|--2-2-2-2--2-2-2-2--2-2-2-2--2-2-2-2---6-6-6-6--6-6-6-6---9--9--9--9---9--9--9--9---|
B |------------------------------------------------------------------------------------|
    WE DON’T  WE DON’T DANCE    WE DON’T SMILE WE DON’T     FRIENDS IT’S SO NICE TO
    HAVE TO   HAVE TO           HAVE TO  HAVE TO MAKE
    TALK 

C#|------------------------------------------------------------------------------------|
G#|------------------------------------------------------------------------------------|
E |--4-4-4-4--4-4-4-4--4-4-4-4--4-4-4-4---8-8-8-8--8-8-8-8--11-11-11-11--11-11-11-11---|
B |--4-4-4-4--4-4-4-4--4-4-4-4--4-4-4-4---8-8-8-8--8-8-8-8--11-11-11-11--11-11-11-11---|
F#|--2-2-2-2--2-2-2-2--2-2-2-2--2-2-2-2---6-6-6-6--6-6-6-6---9--9--9--9---9--9--9--9---|
B |------------------------------------------------------------------------------------|
    MEET YOU LET’S     WE DON’T HAVE TO  TALK WE DON’T     DANCE WE DON’T HAVE TO
    NEVER MEET AGAIN                     HAVE TO           DANCE


[Solo]

C#|--------6~~----------------6~~-----------------|
G#|--6b-4-------6b-7-4---6b-4------6b-7-9~~-------|
E |-----------------------------------------------|
B |-----------------------------------------------|
F#|-----------------------------------------------|
B |-----------------------------------------------|


[Pre-Chorus]

C#|--------------------------------------------------------------------------------|
G#|--------------------------------------------------------------------------------|
E |--4---------------------------------8--------------------11---------------------|
B |--4---------------------------------8--------------------11---------------------|
F#|--2---------------------------------6---------------------9---------------------|
B |--------------------------------------------------------------------------------|
    YOU’RE NEVER  I’M A HAZARD   I’LL BREAK IT TO   THIS IS HELL, THIS IS HELL
    GONNA GET IT  TO MYSELF      YOU EASY

C#|-------------------------------------------------------------|
G#|-------------------------------------------------------------|
E |--4-----------------------------------8----------------------|
B |--4-----------------------------------8----------------------|
F#|--2-----------------------------------6----------------------|
B |-------------------------------------------------------------|
    YOU’RE LOOKIN     YOU THINK I’M     THIS IS HELL YES
    AND WHISPERING    SOMEONE ELSE      LITERAL HELL


[Chorus]

C#|------------------------------------------------------------------------------------|
G#|------------------------------------------------------------------------------------|
E |--4-4-4-4--4-4-4-4--4-4-4-4--4-4-4-4---8-8-8-8--8-8-8-8--11-11-11-11--11-11-11-11---|
B |--4-4-4-4--4-4-4-4--4-4-4-4--4-4-4-4---8-8-8-8--8-8-8-8--11-11-11-11--11-11-11-11---|
F#|--2-2-2-2--2-2-2-2--2-2-2-2--2-2-2-2---6-6-6-6--6-6-6-6---9--9--9--9---9--9--9--9---|
B |------------------------------------------------------------------------------------|
    WE DON’T  WE DON’T DANCE    WE DON’T SMILE WE DON’T     FRIENDS IT’S SO NICE TO
    HAVE TO   HAVE TO           HAVE TO  HAVE TO MAKE
    TALK 

C#|------------------------------------------------------------------------------------|
G#|------------------------------------------------------------------------------------|
E |--4-4-4-4--4-4-4-4--4-4-4-4--4-4-4-4---8-8-8-8--8-8-8-8--11-11-11-11--11-11-11-11---|
B |--4-4-4-4--4-4-4-4--4-4-4-4--4-4-4-4---8-8-8-8--8-8-8-8--11-11-11-11--11-11-11-11---|
F#|--2-2-2-2--2-2-2-2--2-2-2-2--2-2-2-2---6-6-6-6--6-6-6-6---9--9--9--9---9--9--9--9---|
B |------------------------------------------------------------------------------------|
    MEET YOU LET’S     WE DON’T HAVE TO  TALK WE DON’T     DANCE WE DON’T HAVE TO
    NEVER MEET AGAIN                     HAVE TO           

C#|------------------------------------------------------------------------------------|
G#|------------------------------------------------------------------------------------|
E |--4-4-4-4--4-4-4-4--4-4-4-4--4-4-4-4---8-8-8-8--8-8-8-8--11-11-11-11--11-11-11-11---|
B |--4-4-4-4--4-4-4-4--4-4-4-4--4-4-4-4---8-8-8-8--8-8-8-8--11-11-11-11--11-11-11-11---|
F#|--2-2-2-2--2-2-2-2--2-2-2-2--2-2-2-2---6-6-6-6--6-6-6-6---9--9--9--9---9--9--9--9---|
B |------------------------------------------------------------------------------------|
    DANCE              WE DON’T HAVE TO  TALK WE DON’T HAVE TALK WE DON’T HAVE TO
                                         TO

C#|----------------------------------------------------------------------------------|
G#|----------------------------------------------------------------------------------|
E |--4-4-4-4--4-4-4-4--4-4-4-4--4-4-4-4---8-8-8-8--8-8-8-8--8-8-8-8--8-8-8-8---------|
B |--4-4-4-4--4-4-4-4--4-4-4-4--4-4-4-4---8-8-8-8--8-8-8-8--8-8-8-8--8-8-8-8---------|
F#|--2-2-2-2--2-2-2-2--2-2-2-2--2-2-2-2---6-6-6-6--6-6-6-6--6-6-6-6--6-6-6-6---------|
B |----------------------------------------------------------------------------------|
    DANCE              WE DON’T HAVE TO  TALK, TALK, TALK  WE DON’T HAVE TO DANCE




            
            
Suggest correction
Creating personal tab
Creating personal tab
You can edit any tab online and save it as your Personal.

You can edit, replace or remove any tab part or add personal notes – all changes will be seen only by you.

Personal tabs can be accessed anytime from any device, even offline.
Learn more »
comments
print report bad tab
guest
You may want to rate the tab now too:
select rating
Wanna post a correction for this tab? Suggest correction