Oops, an error
Loading. Please wait.

Good Life Tab

841 views 1 this week
no commentswrite comment
1 2 3 4 5
2 more votes to show rating
add to favorites
launch autoscroll
font size
0
reset
how to read this tab
guitar tuner
Autoscroll
slow
fast
+/-
esc
set tempo
stop
Help us to improve Ultimate-Guitar.com Take our survey!
×
Difficulty
novice
first tab..you know the rest. hope this helps you random dude looking for andy davis tab.

Riff:
E|-----------------------------------------------------------------------|
B|-----------------------------------------------------------------------|
G|-----------------------------------------------------------------------|
D|11-10-9---------------------------11-10-9------------------------------|
A|--------12---12-10---10-9--9h10p9---------12---12-10---10-9------------|
E|------------------------------------------------------------10-(11)-12-|

E|-----------------------------------------------------------------------|
B|-----------------------------------------------------------------------|
G|-----------------------------------------------------------------------|
D|11-10-9---------------------------11-10-9------------------------------|
A|--------12---12-10---10-9--9h10p9---------12---9-12---9-12-------------|
E|-----------------------------------------------------------------------|

Repeat once. Also, the riff applies during breakdown following the second chorus.
Suggest correction
Give kudos to tab author, rate the tab!
1 2 3 4 5
comments
print report bad tab
guest
You may want to rate the tab now too:
select rating
Wanna post a correction for this tab? Suggest correction