Oops, an error
Loading. Please wait.

Biggest Man In Los Angeles Tab

version 2
version 2

Whole song

8,199 views 24 this week
1 commentread comment
1 2 3 4 5
excellent!
x 7
add to favorites
launch autoscroll
font size
0
reset
how to read this tab
guitar tuner
Tab Pro tools
  • play this tab
  • loop segment
  • change instrument
  • show fretboard
  • metronome
×
Best way to learn
"Biggest Man In Los Angeles"
Autoscroll
slow
fast
+/-
esc
set tempo
stop
Contributor
Difficulty
Capo
intermediate
5th fret
Just a basic tab. He doesn't play the notes on the D string during the verse but I 
like the sound better so I put it in there. If there is anything wrong let me know. Enjoy.

Biggest man in Los Angeles: Andy Grammer

Capo 5th fret

Verse:
E |--------------------------------------0----0-0-0-0--|
B |--------------------------------------0----3-3-3-3--|
G |--------5----4---4-4-4-4---2---2-2----0----0-0-0-0--|
D |--------5----5---5-5-5-5---0---0-0----2----2-2-2-2--|
A |--------x----x---x-x-x-x---x---x-x----2----2-2-2-2--|
E |--2/5---5----3---3-3-3-3---2---2-2----0----0-0-0-0--|

E |--------------------------------------0----0-0-|
B |--------------------------------------0----3-3-|
G |--------5----4---4-4-4-4---2---2-2----0----0-0-|
D |--------5----5---5-5-5-5---0---0-0----2----2-2-|
A |--------x----x---x-x-x-x---x---x-x----2----2-2-|
E |--2/5---5----3---3-3-3-3---2---2-2----0----0-0-|

Pre-Chorus:
E |---------------------------------------------------------|
B |---------------------------------------------------------|
G |--5------------4--------------2-----------0--------------|
D |--5------------5--------------0-----------2--------------|
A |--x------------x--------------x-----------2--------------|
E |--5------------3--------------2-----------0--------------|

E |-----------------------------------------|
B |-----------------------------------------|
G |--5------------4--------------2-2-2-2-2--|
D |--5------------5--------------0-0-0-0-0--|
A |--x------------x--------------x-x-x-x-x--|
E |--5------------3--------------2-2-2-2-2--|

Chorus
E |----3---3-3---3---3-3-3-3--------------3---3-3-3-3---|
B |----3---3-3---3---3-3-3-3---1---1-1----3---3-3-3-3---|
G |----0---0-0---0---0-0-0-0---2---2-2----0---0-0-0-0---|
D |----0---0-0---2---2-2-2-2---2---2-2----2---2-2-2-2---|
A |----2---2-2---3---3-3-3-3---0---0-0----3---3-3-3-3---|
E |----3---3-3------------------------------------------|

Bridge
E |-----------------------------------------------------------|
B |--1--1-1-1--1--1-1-1--1--1-1---0--0-0-0--0--0-0-0--0--0-0--|
G |--2--2-2-2--2--2-2-2--2--2-2---0--0-0-0--0--0-0-0--0--0-0--|
D |--2--2-2-2--2--2-2-2--2--2-2---2--2-2-2--2--2-2-2--2--2-2--|
A |--0--0-0-0--0--0-0-0--0--0-0---2--2-2-2--2--2-2-2--2--2-2--|
E |-------------------------------0--0-0-0--0--0-0-0--0--0-0--|

E |-----------------------------------------------------------|
B |--1--1-1-1--1--1-1-1--1--1-1---3--3-3-3--3--3-3-3--3--3-3--|
G |--2--2-2-2--2--2-2-2--2--2-2---0--0-0-0--0--0-0-0--0--0-0--|
D |--2--2-2-2--2--2-2-2--2--2-2---2--2-2-2--2--2-2-2--2--2-2--|
A |--0--0-0-0--0--0-0-0--0--0-0---2--2-2-2--2--2-2-2--2--2-2--|
E |-------------------------------0--0-0-0--0--0-0-0--0--0-0--|

E |-----------------------------------------------------------|
B |--1--1-1-1--1--1-1-1--1--1-1---0--0-0-0--0--0-0-0--0--0-0--|
G |--2--2-2-2--2--2-2-2--2--2-2---0--0-0-0--0--0-0-0--0--0-0--|
D |--2--2-2-2--2--2-2-2--2--2-2---2--2-2-2--2--2-2-2--2--2-2--|
A |--0--0-0-0--0--0-0-0--0--0-0---2--2-2-2--2--2-2-2--2--2-2--|
E |-------------------------------0--0-0-0--0--0-0-0--0--0-0--|

E |--------------------------------------------------|
B |--1--1-1-1--1--1-1-1--1--1-1---3--3-3-3-3-3-3--3--|
G |--2--2-2-2--2--2-2-2--2--2-2---0--0-0-0-0-0-0--0--|
D |--2--2-2-2--2--2-2-2--2--2-2---2--2-2-2-2-2-2--2--|
A |--0--0-0-0--0--0-0-0--0--0-0---3--3-3-3-3-3-3--3--|
E |--------------------------------------------------|

Order: 
Verse
Pre-chorus
Chorus
Verse
Pre-chorus
Chorus
Verse pattern 
Bridge
Chorus (A cappella)
Chorus
Verse pattern 2x
end.
comments
print report bad tab
1 comment total.
0 reply
sharonwuftw wrote on December 31 2015, 11:02 pm

Just a slight correction: the slide from 2nd to 5th should be 3rd to 5th! Sounds more right like the way Andy plays it. :)

I want to post or [tab]
guest
You may want to rate the tab now too:
select rating
Please do not post tabs as comments. Select "correction" instead!