Oops, an error
Loading. Please wait.

Ladies chords

52 views 1 this week
no commentswrite comment
1 2 3 4 5
3 more votes to show rating
add to favorites
×
Save as Personal and add changes to this tab that will be seen only by you. Learn more ›
×
You can save this tab as Personal to edit and correct it or add notes. All changes will be seen only by you. Learn more »
launch autoscroll
font size
0
reset
transpose
0
reset
display chords
guitar tuner
edit
Autoscroll
slow
fast
+/-
esc
set tempo
stop
About this tab version
Made this for those that wondered that actual tab pattern. Sounds best with no capo. Was this info helpful? Yes No
Strumming Is this strumming pattern correct? Yes No
Chorus 120 bpm
1
&
2
&
3
&
4
&
Listen
[Intro]
G
e|--------|------|-------------|
B|--4-----|------|-------------|
G|--5-----|------|-------------|
D|--------|------|-------------|
A|--------|------|---0-5-4-3---|
E|--------|--0---|-------------|

[Verse]
e|--------|------|-------------|
B|--4-----|------|-------------|
G|--5-----|------|-------------|
D|--------|------|-------------|
A|--------|------|---0-5-4-3---|
E|--------|--0---|-------------|

G
My mother told me,
Am           C
She said Andy,
G
You'll be a man soon,
G
So understand me.
    C
Most of this world sees,
G
Women like candy.
G
You'll be a man who,
        D           G
Will be standing for me.

[Hook]
e|--------|------|-------------|
B|--4-----|------|-------------|
G|--5-----|------|-------------|
D|--------|------|-------------|
A|--------|------|---0-5-4-3---|
E|--------|--0---|-------------|

G           Am
My sisters, my daughters and wives,
G
Girls who are learning how to shine their light.
         Am
Dedicate some of your life,
C
Stand for them all.
             G
Sing it now, me
G
My sisters, my daughters, and wives, Girls who are learning how to shine their light.
         C
Dedicate some of your life, You will stand for them all,

[Chorus]
Sing it now
G
Ladies,
G
You are beautiful, you are beautiful, You don't even have to try.
G     C  G
Oh ladies,
G
You are beautiful, you are beautiful, More than you could realize.

[Verse]
e|--------|------|-------------|
B|--4-----|------|-------------|
G|--5-----|------|-------------|
D|--------|------|-------------|
A|--------|------|---0-5-4-3---|
E|--------|--0---|-------------|

G
My mother told me,
         Am
She said Andy,
G           C
I know this all may,
       G
Seem demanding.
            C
But I'll be leaving,
             G
And we'll be handing,
G
All of my love to you,
G
You will be standing for me,

[Hook]
e|--------|------|-------------|
B|--4-----|------|-------------|
G|--5-----|------|-------------|
D|--------|------|-------------|
A|--------|------|---0-5-4-3---|
E|--------|--0---|-------------|

               Am
My sisters, my daughters and wives,
G
Girls who are learning how to shine their light.
G
Dedicate some of your lives,
G
Stand for them all,

[Chorus]
Sing it now,
G
Ladies,
G
You are beautiful, you are beautiful, You don't even have to try,
G
Oh ladies,
G
You are beautiful, you are beautiful, More than you could realize.

[Turn]
D G F#m Em

Am
I'm not sure if I'm the best one
   Em
To carry this torch,
                  D
I'm a mess and my nose is sore. Fallin on my face tryin to
D
Break the norm, But I still conform.
      Am
And I know you see,
              Em
The mistakes I make and wait. Patiently, for me to replace them
   F#m
And I can't quite seem, To be the perfect man,
     Em
That you needed me to be, I need you to believe that

C*               G*
I'll be standing here,
       F#m*            Em*
Got my sword, I got my shield.
             C*              G*
And you keep ringing in my ear,
   F    -building
Oh lord,
             G*
Talking bout me,

[Hook]
N.C.
My sisters, my daughters, and wives.
N.C.
Girls who are learning how to shine their light.
N.C.
Dedicate some of your life,
N.C.
Stand for them all,

[Chorus]
            G
Sing it now ladies,
G
You are beautiful, you are beautiful, You don't even have to try,
G
Oh ladies,
        C         G
You are beautiful, you are beautiful, More than you could realize.
G
Ladies,
G
You are beautiful, you are beautiful, you don't even have to try,
 G      C    G
Sing it ladies
G
You are beautiful, you are beautiful, More than you could realize.

[Ending]
e|--------|------|-------------|
B|--4-----|------|-------------|
G|--5-----|------|-------------|
D|--------|------|-------------|
A|--------|------|---0-5-4-3---|
E|--------|--0---|-------------|


************************************

| * - one strum

************************************
Suggest correction
Creating personal tab
Creating personal tab
You can edit any tab online and save it as your Personal.

You can edit, replace or remove any tab part or add personal notes – all changes will be seen only by you.

Personal tabs can be accessed anytime from any device, even offline.
Learn more »
Give kudos to tab author, rate the tab!
1 2 3 4 5
comments
print report bad tab
guest
You may want to rate the tab now too:
select rating
Wanna post a correction for this tab? Suggest correction